At The Drive-in - Proxima Centuari Chords & Tabs

 

Proxima Centuari Chords & Tabs

At The Drive-in Chords & Tabs

Version: 1 Type: Bass Tab 0 ratings
1 star 2 stars 3 stars 4 stars 5 stars
comments

Proxima Centuari Bass Tab

riff one:
G||-------||----------------------------------------||
D||-------||*-------------------12-----------------*||
A||-------||*---------------------------------12---*||
E||-3/----||---0--0-10p0-12p0-0-----0-12---0-------||


   verse one:                                             
G||---------------------------------------------------------|
D||---------------------------------------------------------|
A||---------------------------------------------------------|
E||-0--0-0--0-0-0-0--0-0--0-0-0-3--3-3--3-3-3-3--3-3--3-3-3-|

                                                           
G||-----------------------------------------------------------||
D||-----------------------------------------------------------||
A||-5--5-5--5-5-5-5--5-5--5-3---------------------------------||
E||---------------------------5-5--5-5-5-5-5-5-5-5-5-5-x-x-x--||


G||---------------------------------------------------------|
D||---------------------------------------------------------|
A||---------------------------------------------------------|
E||-0--0-0--0-0-0-0--0-0--0-0-0-3--3-3--3-3-3-3--3-3--3-3-3-|

                                                           
G||-----------------------------------------------------------||
D||-----------------------------------------------------------||
A||-5--5-5--5-5-5-5--5-5--5-5-5------------------------3------||
E||-----------------------------5--5-5-5-5-5-5-5-5-5-5--------||


   pre chorus one:
G||-------------------------------------------------||
D||-------------------------------------------------||
A||-7----7-7-5--5-5--5-0-5--3-3--3-2-0--0-0-2--2-2--||
E||-------------------------------------------------||

G||---------------------------------------------------------||
D||---------------------------------------------------------||
A||------------------5--5-5--5-0-5--3-3--3-2-0--0-0-2--2-2--||
E||-0-0-0-0-0-0-0-0-----------------------------------------||

G||--------------------------------------------------------||
D||--------------------------------------------------------||
A||-7-7-7-7-7-7-7-7-5--5-5--5-0-5--3-3--3-2-0--0-0-2--2-2--||
E||--------------------------------------------------------||

G||---------------------------------------------------------||
D||---------------------------------------------------------||
A||------------------5--5-5--5-0-5--3-3--3-2-0--0-0-2--2-2--||
E||-0-0-0-0-0-0-0-0-----------------------------------------||


   chorus one:
G||---------------------------------------------------------------||
D||---------------------------------------------------------------||
A||-5-5-5-5-5-----3----3-3----3-3---5-5-5-5-5-----3----3-3----3-3-||
E||---------------------------------------------------------------||
[ Tab from: http://www.guitartabs.cc/tabs/a/at_the_drive_in/proxima_centuari_btab.html ]
G||-----------------------------------------------------------------------------||
D||-----------------------------------------------------------------------------||
A||-5-5-5-5-5-----3---3-3---3-3---5-5-5-5-5-----3---3-3-3---3-3-3--3--3-5-5-5-5-||
E||-----------------------------------------------------------------------------||


BREAK FOR GUITAR/DRUMS


            riff one:
G||-------||----------------------------------------||
D||-------||*-------------------12-----------------*||
A||-------||*---------------------------------12---*||
E||-3/----||---0--0-10p0-12p0-0-----0-12---0-------||


   verse two:
G||---------------------------------------------------------|
D||---------------------------------------------------------|
A||---------------------------------------------------------|
E||-0--0-0--0-0-0-0--0-0--0-0-0-3--3-3--3-3-3-3--3-3--3-3-3-|

                                                           
G||-----------------------------------------------------------||
D||-----------------------------------------------------------||
A||-5--5-5--5-5-5-5--5-5--5-3---------------------------------||
E||---------------------------5-5--5-5-5-5-5-5-5-5-5-5-x-x-x--||


G||---------------------------------------------------------|
D||---------------------------------------------------------|
A||---------------------------------------------------------|
E||-0--0-0--0-0-0-0--0-0--0-0-0-3--3-3--3-3-3-3--3-3--3-3-3-|

                                                           
G||------------------------------------------------------------||
D||------------------------------------------------------------||
A||-5--5-5--5-5-5-5--5-5--5-5-5--------------------------------||
E||-----------------------------5--5-5-5-5-x-x--x-x--x-x--x-x--||


   pre chorus two:
G||-------------------------------------------------||
D||-------------------------------------------------||
A||-7----7-7-5--5-5--5-0-5--3-3--3-2-0--0-0-2--2-2--||
E||-------------------------------------------------||

G||---------------------------------------------------------||
D||---------------------------------------------------------||
A||------------------5--0-5--5-0-5--3-3--3-2-0--0-0-2--2-2--||
E||-0-0-0-0-0-0-0-0-----------------------------------------||

G||--------------------------------------------------------||
D||--------------------------------------------------------||
A||-----------------5--5-5--5-0-5--3-3--3-2-0--0-0-2--2-2--||
E||-0-0-0-0-0-0-0-0----------------------------------------||

G||---------------------------------------------------------||
D||---------------------------------------------------------||
A||------------------5--5-5--5-0-5--3-3--3-2-0--0-0-2--2-2--||
E||-0-0-0-0-0-0-0-0-----------------------------------------||


   chorus two:
G||---------------------------------------------------------------||
D||---------------------------------------------------------------||
A||-5-5-5-5-5-----3----3-3----3-3---5-5-5-5-5-----3----3-3----3-3-||
E||---------------------------------------------------------------||

G||-----------------------------------------------------------------------------||
D||-----------------------------------------------------------------------------||
A||-5-5-5-5-5-----3---3-3---3-3---5-5-5-5-5-----3---3-3-3---3-3-3--3--3-5-5-5-5-||
E||-----------------------------------------------------------------------------||
Comments