At The Drive In - Pattern Against User Chords & Tabs

 

Pattern Against User Chords & Tabs

At The Drive In Chords & Tabs

Version: 2 Type: Tab 0 ratings
1 star 2 stars 3 stars 4 stars 5 stars
comments

Pattern Against User Tab

   
Band:    At the Drive-in
Song:    Pattern against user
Album:   Relationship Of Command
Tabbed By: Jeremy Battreal punk_ass_biotch16@hotmail.com
Tuning:  Standard

h: Hammer-on
p: Pull-off

PLEASE SEND FEEDBACK, SUGGESTIONS, CORRECTIONS TO MY EMAIL ADDRESS!
HOPE SOMEONE OUT THERE CAN USE THIS!


Intro (2X) / Chorus (4X):

Guitar 1:   
e -0--0-0--0--0-0--0-0--0--0-0--0--0-0--0-0--0--0-0--0--0-0--0-0-----
B -0--0-0--0--0-0--0-0--0--0-0--0--0-0--0-0--0--0-0--0--0-0--0-0-----
G -2--2-2--2--2-2--2-2--2--2-2--2--2-2--2-2--2--2-2--2--2-2--2-2-----
D -2--2-2--2--2-2--2-2--0--0-0--0--0-0--0-0--4--4-4--4--4-4--4-4-----
A -0--0-0--0--0-0--0-0--2--2-2--2--2-2--2-2--------------------------
E -------------------------------------------------------------------

Guitar 1:
e -0--0-0--0--0-0--0-0-----------------------------------------------
B -0--0-0--0--0-0--0-0-----------------------------------------------
G -2--2-2--2--2-2--2-2-----------------------------------------------
D -5--5-5--5--5-5--5-5-----------------------------------------------
A -------------------------------------------------------------------
E -------------------------------------------------------------------

Guitar 2:
e ---------7---------3--2--0----3--2-0--2-----------(repeat)---------
B -0--0---------3----------------------------0--0--------------------
G -------------------------------------------------------------------
D -------------------------------------------------------------------
A -------------------------------------------------------------------
E -------------------------------------------------------------------


Verse (4X):

Guitar 1:
   p.m.**********************           p.m.****    *******
e ----------------------------0-0---0-0------------------------0-0-0-
B -3-3-3-3-3-3-3-3------------1-1p0-0-0-3-3-3-3-1p0------------0-0-0-
G -2-2-2-2-2-2-2-2------------0-0---0-0-2-2-2-2-0--------------0-0-0-
D -0-0-0-0-0-0-0-0-2-2-2-2-2--2---------0-0-0-0-----2-2-2-2----------
A -----------------3-3-3-3-3--3---------------------3-3-3-3----------
E -------------------------------------------------------------------

Guitar 2:
e ----10-----12------------------------10----12----------------------
B -----------------13-----12--10---12--------------13----12----10----
G -------------------------------------------------------------------
D -------------------------------------------------------------------
A -------------------------------------------------------------------
E -------------------------------------------------------------------

Bass-interlude:

Bridge: 
[ Tab from: http://www.guitartabs.cc/tabs/a/at_the_drive_in/pattern_against_user_tab_ver_2.html ]
Guitar 1: (mostly palm muted...)(6X)
   harm.
e -12----------------------------------------------------------------
B ---12-----5--5h7-----5-----7---------------------------------------
G --------5-------6------6-----6---6---------------------------------
D ------7----7-----7-------7-----7---7-------------------------------
A -------------------------------------------------------------------
E -------------------------------------------------------------------

Guitar 2: (First part non-muted:) (4X)
e ----------------------5-------4------------------------------------
B -----5----5--5h7---5----5-------5-----7-5--------------------------
G --6----6--------6----------6-------6------6h7-------6--6-----------
D ----------------------------------------------------7--7-----------
A -------------------------------------------------------------------
E -------------------------------------------------------------------

(then palm-muted:) (2X)
e -----------------4----------------------------------4--------------
B -----5-----5--7------5---5---5---5------5-----5--7-----------------
G --6-----6----------7---6---6---4---6-6-----6-----------6-7-6-------
D -----------------------------------------------------------7-------
A -------------------------------------------------------------------
E -------------------------------------------------------------------


PATTERN AGAINST USER LYRICS:
----------------------------

INTRO:

VERSE1: (starts immediately)
The proposition
Handcuffed to the park bench
Hypodermic people poking
Fun at the living
Please lift the weight out of this
It takes the weight out of living
Are we just infants
That are ripe for the training
The opposition
Can't feel the tentacle reach
Suction cup the numb arms
Of the elderly
Please lift the weight out of this
It takes the weight out of living 
Let these walkers trip on
Endless proof

CHORUS:
Pattern against user - dialated
Bastard waiting for nothing
Circus carny guarding
The gates of heaven
Pact stuck in the limbo abduction
Wormed our way through 
Distant earth
Wormed our way through 
Distant earth

VERSE2: (1X without singing)
This intuition
Limps with the cane of suspicion
Folding space in the crease of this page
It takes the weight out of this
It takes the weight out of-
Trickling the ticking of this
Grandfather clock
The opposition
Can't feel the tentacle reach
Suction cup of the numb arms of
The elderly

CHORUS:
Pattern against user - dialated
Bastard waiting for nothing
Circus carny guarding
The gates of heaven
Pact stuck in the limbo abduction
Wormed our way through 
Distant earth
Wormed our way through 
Distant earth

BASS INTERLUDE:

BRIDGE:
And if this clock keeps 
Ticking away
Will time be hesitated
Of all the minutes that were
Taken away
Will your watch be waiting
Sand falls through
Time portals
These landfills - immortal
And if this clock keeps      (Palm mute part)
Beating down 
Let the branded time
Keep playing
Of all the minutes that 
Were taken away
Will your watch be waiting

CHORUS:
Pattern against user - dialated
Bastard waiting for nothing
Circus carny guarding
The gates of heaven
Pact stuck in the limbo abduction
Wormed our way through 
Distant earth
Wormed our way through 
Distant earth

(OUTRO: Chorus soft)
Wormed our way through 
Distant earth
Wormed our way through 
Distant earth...hey
Comments