At The Drive In - Pattern Against User Chords & Tabs

 

Pattern Against User Chords & Tabs

At The Drive In Chords & Tabs

Version: 1 Type: Tab 0 ratings
1 star 2 stars 3 stars 4 stars 5 stars
comments

Pattern Against User Tab

         Artist: AT THE DRIVE-IN 
         Title: SLEEPWALK CAPSULES 
         Album: RELATIONSHIP OF COMMAND 
Transcribed by: SeBaStIaN SqUiReS 
         Email: THE5EBSTER@HOTMAIL.COM 

THIS IS A GREAT SONG BY AT THE DRIVE-IN AND I LOVE IT, SO I HAD TO TAB IT! 


MAIN CHORUS 
-------------------------------- 
-------------------------------- 
-99-9-77-7-6666664446666/7------ 
-99-9-77-7---------------------- 
-------------------------------- 
-------------------------------- 

RIFF 1 
------------------------------------------------ 
------------------------------------------------ 
----------------------------------------55555555 
-10-10-10-10-10-9-7-10-9-7-10/11-11-11--55555555 
----------------------------------------33333333 
----------------------------------------33333333 


THIS BIT IS PLAYED WITH A LOT OF EFFECTS 
------------------------- 
-------------------------REPEAT THIS SEVERAL TIMES 
-9~--7~------------------ 
-9~--7~----7-------------THIS RIFF DIFFERS SLIGHTY EACH TIME IT IS PLAYED 
-7~--5~--5---8-6~--------AND THERE IS ALOT OF WAH, ECHO, FLANGE AND OTHER  
FX'S USED 
------------------------- 


THEN PLAY THIS AFTER THE LAST TIME 
-------------------- 
-------------------- 
-------------------- 
-------------------- 
-------------------- 
-7-6-4-7-3-7-6-4-10- 


NEAR END 
----15------15----------------------- 
------15------15--------------------- 
-99------77------6666664446666/7----- 
-99------77-------------------------- 
------------------------------------- 
------------------------------------- 

[ Tab from: http://www.guitartabs.cc/tabs/a/at_the_drive_in/pattern_against_user_tab.html ]
AT END 
--------------------------------------------- 
--------------------------------------------- 
-------------------------------------55555555 
-10-10-10-10-10/9-11-11-11-11-11-11--55555555 
-------------------------------------33333333 
-------------------------------------33333333 


HOPE YOU LIKE THIS TAB, I DID IT AT ELEVEN O'CLOCK AT NIGHT AND IT TOOK ME  
ABOUT AN HOUR, 
HOPE IT SOUNDS NEAR ENOUGH LIKE THE ORIGINAL. 

LYRICS 

the proposition 
handcuffed to the park bench 
hypodermic people poking fun at the living 
please lift the weight out of this 
it takes the weight out of living 
are we just infants that are ripe for the training 
the opposition 
can't feel the tentacle reach 
suction cup the numb arms of the elderly 
please lift the weight out of this 
it takes the weight out of living 
let these walkers trip on endless proof 
pattern against user 
dilated 
bastard waited for nothing 
circus carny guarding 
the gates of heavan 
pact stuck in limbo abduction 
wormed our way through distant earth 
this intuition 
limps with the cane of suspicion 
folding space in the crease of this page 
it takes the weight out of this 
it takes the weight out of-- 
trickling the ticking of this grandfather clock 
the opposition 
can't feel the tentacle reach 
suction cup the numb arms of the elderly 
chorus 
and if this clock keeps ticking away 
will time be hesitated 
of all the minutes that were taken away 
will your watch be waiting 
sand falls through 
time portals 
these landfills, immortal 
and if the clock keeps beating down 
let the branded time keep playing 
of all the minutes that were taken away 
will your watch be waiting. 


AT THE DRIVE-IN RULE!
Comments