At The Drive In - One Armed Scissor Chords & Tabs

 

One Armed Scissor Chords & Tabs

At The Drive In Chords & Tabs

Version: 3 Type: Tab 0 ratings
1 star 2 stars 3 stars 4 stars 5 stars
comments

One Armed Scissor Tab

Band: At The Drive-In
Song: One Armed Scissor
Album: Relationship Of Command
Tabbed By: Jeremy punk_ass_biotch16@hotmail.com

Tunning: Standard

[INTRO] (0:00)
Guitar 1 (4/4)
------------------------            i play the 1st     -3-   its much
-8--8--8--8--8-------0--            chord like this:   -3-   easier
-7--7--7--7--7-------7--  PLAY 2X                      -0-
-5--5--5--5--5-------X--                               -2-
-7--7--7--7--7-------7--                               ---
------------------------                               ---

Guitar 2 (4/4)
------------------------
------------------------
-7--7--7--7--7-------7-- PLAY 2X
-x--x--x--x--x-------x--
-7--7--7--7--7-------7--
------------------------

THEN

Guitar 1 (3/4)
-------------12------0--
-9--(9)--12------12-----
-x--(x)----------------- PLAY 4X omitting () except for last time
-9--(9)-----------------
------------------------
------------------------

Guitar 2 (3/4)
------------------------
-------------0----------
----------0------0------ PLAY 4X
-----10-------------10--
-12---------------------
------------------------

THEN

[1ST VERSE] (0:07)
"Yes   this   is  the..."
Guitar 1 (3/4)
-----------0------0------0------0------0--
-9-----12-----12-----12-----12-----12-----
-x----------------------------------------
-9----------------------------------------
------------------------------------------
------------------------------------------

"entrails in the cargo..."
-----0------0------0------0------0------0-
-12-----12-----12-----12-----12-----12----
------------------------------------------ bend 12, 1/4 of a step for
------------------------------------------ these measures
------------------------------------------
------------------------------------------

Guitar 2 (3/4)
-------------------------------------------
-------------------------------------------
-------------------------------------------
-----------------------------------(7)----- () = harmonics
----------------------------(7)------------
-12\---------------------------------------

-------------------------------------------
-(7)-----------------(7)-------------------
-------------------------------------------
-------------------------------------------
-------------------------------------------
-------------------------------------------

[CHORUS] (0:39)
"Send transmission from the...."
Guitar 1 (4/4)
---------------------------------------------------
-8--8--8--8--8-----0------3--3--3--3--3-----3------
-7--7--7--7--7-----7------0--0--0--0--0-----0------
-5--5--5--5--5-----X------4--4--4--4--4-----4------
-7--7--7--7--7-----7------5--5--5--5--5-----5------
---------------------------------------------------

"Cut away.....cut away....."
----------------------------------------------------------------
--------12--12--12--12--0--x--------------0---0---0---0---0---x-
---------x---x---x---x--0--x--------------0---0---0---0---0---0-
-10-----10--10--10--10--------------------x---x---x---x---x-----
-12-----12--12--12--12--------10--10------10--10--10--10--10----
------------------------------8---8-------8---8---8---8---8-----

Guitar 2 (4/4)
--------------------------------------------------
--------------------------------------------------
-7--7--7--7--7-----7------7--7--7--7--7-----7-----
-x--x--x--x--x-----x------4--4--4--4--4-----4-----
-7--7--7--7--7-----7------5--5--5--5--5-----5-----
--------------------------------------------------

--------0---0---0---0---0----------------------------------------
--------x---x---x---x---x-----------------------------0---0---0--
-10-----10--10--10--10--10----------------------------0---0---0--
-7------7---7---7---7---7---0---------------------------------0--
-8------8---8---8---8---8---0-----10--10--10--10--10--10--10-----
----------------------------------8---8---8---8---8---8---8------

[INTERLUDE] (1:02)
Guitar 1 (4/4)
-------------------------------------------------  i guess these last
-r--------0-----r--------r--------0--------------  2 E's are harmonics
-e-----------0--e-----0--e-----------x--x--x--x--  good luck trying to
-s-----5--------s--x--x--s-----5-----x--x--x--x--  play it right.
-t--7-----------t--x--7--t--7--------x--x--7--7--  Omar's friggin nutz!
-------------------------------------------------

-------------------------------------------------
----------0--r--------0--------------------------
-x-----0-----e-----0--------------0--x-----------
-x--5--------s-----------x-----0-----x--5--4--0--
----7--------t--5--------x--2--------------------
-------------------------------------------------

Guitar 2 (4/4)
-------------------------------------------------
----------0-----------0-----------0-----------0--
-------0-----------0-----------0-----------0-----
----10----------10----------10----------10-------
-12----------12----------12----------12----------
-------------------------------------------------

-------------------------------------------------
----------0-----------0-----------0-----------0--
-------0-----------0-----------0-----------0-----
----10----------9-----------7--------5--5--------
-12----------10----------9-----------7--7--------
-------------------------------------------------

[2ND VERSE] (1:14)
"Banked on / memory / mummified..."
Guitar 1 (4/4)
----12--0----------0---------12--0----------0---------  let this last
-r---------12--15---------0---------12--15---------0--  note, the B,
-e--------------------14-----------------------14-----  ring out for
-s----------------------------------------------------  two beats, over-
-t----------------------------------------------------  lapping the rest
------------------------------------------------------  on the next bar

----12--0----------0-------------0--------------------
-r---------12--15---------0--12-------------12-13--12-
-e--------------------14------------12--11------------
-s----------------------------------------------------
-t----------------------------------------------------
------------------------------------------------------

Guitar 2 (4/4)
----------------------------------------------------------------
----------------------------------------------------------------
----------------------------------------------------------------
-10--10--10--10--10--10--10--10--9---9---9---9---9---9---9---9--
-12--12--12--12--12--12--12--12--10--10--10--10--10--10--10--10-
----------------------------------------------------------------

------------------------------------------------- i didn't line up the
------------------------------------------------- chords here with the
------------------------------------------------- guitar 1 part becuase
-7--7--7--7--7--7--7--7--5--5--5--5--5--5--5--5-- this is just 1/8 notes.
-9--9--9--9--9--9--9--9--7--7--7--7--7--7--7--7-- c'mon, how hard is
------------------------------------------------- that?

Guitar 1
"Self destruct / sequence / this system..."
(PLAY THE SAME PART AS BEFORE)

Guiatr 2
----------------------------------------------------------------
-0---0---0---0---0---0---0---0---0---0---0---0---0---0---0---0--
-0---0---0---0---0---0---0---0---0---0---0---0---0---0---0---0--
-10--10--10--10--10--10--10--10--9---9---9---9---9---9---9---9--
-12--12--12--12--12--12--12--12--10--10--10--10--10--10--10--10-
----------------------------------------------------------------

-------------------------------------------------
-0--0--0--0--0--0--0--0--0--0--0--0--0--0--0--0--
-0--0--0--0--0--0--0--0--0--0--0--0--0--0--0--0--
-7--7--7--7--7--7--7--7--5--5--5--5--5--5--5--5--
-9--9--9--9--9--9--9--9--7--7--7--7--7--7--7--7--
-------------------------------------------------

"Unknown / origin / is this the comfort..."
Guitar 1 (4/4)
--------------------------------- the notes with the *
-r--12--12--12--12*--12^------0-- next to them are bent
-e--0---0---0-------------14--0-- 1/4. notes with ^ are
-s------------------------------- bent 1/2 step.
-t-------------------------------
---------------------------------

-12--------------------------------
-0---12--12--12*--12*--12*------0-- hold the bend for 3 notes
-0---0-----------------0----14--0--
-----------------------------------
-----------------------------------
-----------------------------------

---(12)---------0----0----------
----0---12--12--12*--12------0--
-0--0--------------------14--0--
--------------------------------
--------------------------------
--------------------------------

---------------------------------
-0--0----------12--13--12--------
-0--0--12--11--11------11--------
---------------------------------
---------------------------------
---------------------------------

Guitar 2 (4/4)
------------------------------------------------------
-----------------13---------------------------12------
------------------------------------------------------
-10--10--10--10--10-----------9---9---9---9---9------- palm muting on
-12--12--12--12---------------10--10--10--10---------- <- these chorhds
------------------------------------------------------

-----------------10---(10)\---------------------------
-----------------10---(10)\---------------------------
----------------------------------------------12^--0--
-7---7---7---7----------------5---5---0---0/----------
-9---9---9---9----------------7---7---0---0----------- <-
------------------------------------------------------

"oh no / oh no / do do ..." or is it "unknown / unknown / do do..." ?
the part where Cedric's just yelling sounds. there.
Guitar 1 (4/4)
-0----0----0----0----0---0---0---0---0----0----0----0----0---0---0---0-
-12---12---12---12---12--12--12--12--12---12---12---12---12--12--12--12
-14^--14^--14^--14^--14--14--14--14--14!--14!--14!--14!--14--14--14--14
-----------------------------------------------------------------------
-----------------------------------------------------------------------
-----------------------------------------------------------------------

-------------------------------------------------------------
-0---0---0---0---0---0---0--0--0--0--0---0---13--13--13--12--
-12--12--12--12--11--11--0--0--0-----0---0---0---0---0-------
-------------------------0--0--0-----12--12--0---0---0-------
-------------------------------------------------------------
-------------------------------------------------------------

Guitar 2 (4/4)
------------------------------------------------------------------
------------------------------------------------------------------
------------------------------------------------------------------
-10--10--10--10--10--10--10-\-9---9---9---9---9---9---9---9--\-7--
-12--12--12--12--12--12--12-\-10--10--10--10--10--10--10--10-\-9--
------------------------------------------------------------------

------------------------------------------------------------------
------------------------------------------------------------------
------------------------------------------------------------------
-7---7---7---7---7---7---7--\-5---5---5---5---5---5---5---5--/-10-
-9---9---9---9---9---9---9----7---7---7---7---7---7---7---7----12-

[BUILD UP] (2:01)
"yeah..."
Guitar 1 (4/4)
-----------------------------------------------------------------
-----------------------------------------------------------------
-16--16--16--16--16--16--16--17--17--17--17--17--17--17--17--17--
-x---x---x---x---x---x---x---x---x---x---x---x---x---x---x---x---
-14--14--14--14--14--14--14--15--15--15--15--15--15--15--15--15--
-----------------------------------------------------------------
[ Tab from: http://www.guitartabs.cc/tabs/a/at_the_drive_in/one_armed_scissor_tab_ver_3.html ]
Guitar 2 (4/4)
-----------------------------------------------------------------
-----------------------------------------------------------------
-----------------------------------------------------------------
-5---5---5---5---5---5---5---5---5---5---5---5---5---5---5---5---
-7---7---7---7---7---7---7---7---7---7---7---7---7---7---7---7---
-----------------------------------------------------------------


[CHORUS] (2:03)


[BRIDGE] (2:26)
starting the second time : "Jagged pulp sliced in my veins...."
Guitar 1 (4/4)             {------3------}
----------------------------------------------------------
----------------0-----0-----------------------7--7--7--7--
-------------------0-----0--0-----------------7--7--7--7--
----------------------------------------7-----------------
---------10-----------------------9-----------------------
-/12------------------------------------------------------
                           {------3------}
----------------------------------------------------------
----------------------------------------------------------
----------------0-----0-----------------------8-----------
-------------------0-----0--0-----------------------7-----
---------7------------------------------6--------------6--
--8-------------------------------7-----------------------

vocals start "Disect a trillion sighs away..."
----------------------------------------------------------
----------------0-----0-----------------------7-----------
-------------------0-----0----------------7---------7-----
----------------------------------------------------------
---------10-----------------10----------------------------
--12------------------------------------------------------

----------------------------------------------------------
----------------------------------------------------------
----------------0-----0-----------------------8-----------
-------------------0-----0--------------------------7-----
---------7--------------------------------6------------6--
--8--------------------------7----------------------------

Guitar 2 (4/4)
------------------------------------
------------------------------------
-16--16--16--16--16--16--16--16\14--
-x---x---x---x---x---x---x---x--x---
-14--14--14--14--14--14--14--14\12--
------------------------------------

------------------------------------
------------------------------------
-14--14--14--14--14--14--14--14/16--
-x---x---x---x---x---x---x---x--x---
-12--12--12--12--12--12--12--12/14--
------------------------------------

------------------------------------
------------------------------------
-12--12--12--12--11--11--11--11-----
-x---x---x---x---x---x---x---x------
-10--10--10--10--9---9---9---9------
------------------------------------

------------------------------------
------------------------------------
-9---9---9/11--\9---9---9---8---9---
-x---x---x--x---x---x---x---x---x---
-7---7---7/ 9---7---7---7---6---7---

BUILD UP OF BRIDGE
"jagged pullp sliced in my viens...."
Guitar 1 (4/4)
----------------------------------------------------------
----------------0-----0-----------------------7-----------
-------------------0-----0----------------7---------7-----
----------------------------------------------------------
---------10-----------------10----------------------------
--12------------------------------------------------------

"i write to remember"
----------------------------------------------------------
----------------------------------------------------------
----------------0-----0-----------------------8-----------
-------------------0-----0--------------------------7-----
---------7--------------------------------6------------6--
--8--------------------------7----------------------------

"i write to remember"
----------------------------------------------------------
----------------0-----0---------7-----7--7-----0--0-------
-------------------0-----0------7-----7--7-----0--0-------
--------------------------------7-----7--7----------------
---------10-----------------10----------------------------
--12------------------------------------------------------

"i write to remember!"
----------0--0--0--0--0--0------------------------------
--0-------0--0--0--0--0--0---------0-----0--0--0--0-----
--0-------0--0--0--0--0--0---------x-----x--x--x--x-----
--x-------x--x--x--x--x--x---7-----7-----7--7--7--7-----
--7-------7--7--7--7--7--7---6-----6-----6--6--6--6-----
--8-------8--8--8--8--8--8---7-----7--7--7--7--7--7-----

Guitar 2 (4/4)
----------------------------------------
-----------------15---------------------
-16--16--16--16------16--16--16--16\14--
-x---x---x---x-------x---x---x---x--x---
-14--14--14--14------14--14--14--14\12--
----------------------------------------

------------------------------------
-----------------15---------------------
-14--14--14--14------14--14--14--14/16--
-x---x---x---x-------x---x---x---x--x---
-12--12--12--12------12--12--12--12/14--
----------------------------------------

--------------------------------------
--------------------------------------
-12--12--12--12--0--11--11--11--11\9--
-x---x---x---x------x---x---x---x-----
-10--10--10--10-----9---9---9---9 \7--
--------------------------------------

----------------------------------------
----------------------------------------
-9-------9----------9^-------9b(3/4)----
----------------------------------------
----------------------------------------
----------------------------------------

{full}  {--bend full and a half--}
----------------------------------------
----------------------------------------
-9---9---9---9------9---9---9---9-------
----------------------------------------
----------------------------------------
----------------------------------------

[BREAKDOWN] (3:01)
Guitar 1 (4/4)
-------------------------------------------------------------------
------------0---0---0---0---0---0---7---7---7---7---7---7---0---0--
------------0---0---0---0---0---0---7---7---7---7---7---7---0---0--
------------x---x---x---x---x---x---7---7---7---7---7---7----------
------------10--10--10--10--10--10--10--10--10--10--10--10---------
-12---------12--12--12--12--12--12---------------------------------

--------------------------------------------------------------------
--------------------------------------------0---0---0---0---0---0---
----------------0---0---0---0---------------x---x---x---x---x---x---
----------------x---x---x---x-------7-------7---7---7---7---7---7---
-7--------------7---7---7---7---0---6-------6---6---6---6---6---6---
-8--------------8---8---8---8-------7-------7---7---7---7---7---7---

-------------------------------------------------------------------
------------0---0---0---0---0---0---7---7---7---7---7---7---0---0--
------------0---0---0---0---0---0---7---7---7---7---7---7---0---0--
------------x---x---x---x---x---x---7---7---7---7---7---7----------
------------10--10--10--10--10--10--10--10--10--10--10--10---------
-12---------12--12--12--12--12--12---------------------------------

--------------------------------------------------------------------
--------------------------------------------0---0---0---0---0---0---
----------------0---0---0---0---------------x---x---x---x---x---x---
----------------x---x---x---x-------7-------7---7---7---7---7---7---
-7--------------7---7---7---7---0---6-------6---6---6---6---6---6---
-8--------------8---8---8---8-------7-------7---7---7---7---7---7---

---------------------------------
--------------------------------- palm muted except for first
-----------------------------8--- and last strums
-7---7---7---7---7---7---7---7---
-6---6---6---6---6---6---6---6---
-7---7---7---7---7---7---7---7---

Guitar 2 (4/4)
-0---0---0---0---0---0---0---0---0---0---0---0---0---0-----------
-12--12--12--12--12--12--12--12--10--10--10--10--10--10--0---0---
---------------------------------------------------------0---0---
-----------------------------------------------------------------
-----------------------------------------------------------------
-----------------------------------------------------------------

-----5---5---5---5---5---5---5---5---5---5---5---5---5---0---0---
-8---8---8---8---8---8---8---8---7---7---7---7---7---7---0---0---
---------------------------------------------------------0---0---
-----------------------------------------------------------------
-----------------------------------------------------------------
-----------------------------------------------------------------

-0---0---0---0---0---0---0---0---0---0---0---0---0---0-----------
-12--12--12--12--12--12--12--12--10--10--10--10--10--10--0---0---
---------------------------------------------------------0---0---
-----------------------------------------------------------------
-----------------------------------------------------------------
-----------------------------------------------------------------

-----5---5---5---5---5---5---5---5---5---5---5---5---5---0---0---
-8---8---8---8---8---8---8---8---7---7---7---7---7---7---0---0---
---------------------------------------------------------0---0---
-----------------------------------------------------------------
-----------------------------------------------------------------
-----------------------------------------------------------------

---------------------------------
---------------------------------
---------------------------------
-9---9---9---9---9---9---9---9--- palm muted; gets louder at end
-9---9---9---9---9---9---9---9---
-7---7---7---7---7---7---7---7---


[CHORUS] (3:12)


[OUTRO] (3:36)
"Cut away...cut away"
Guitar 1 (4/4)
---------------------------------0---0---0---0---0---0-----------
-12--12--12--12--12--12--0-------0---0---0---0---0---0---0---0---
-x---x---x---x---x---x---0-------0---0---0---0---0---0---0---0---
-10--10--10--10--10--10----------x---x---x---x---x---x-----------
-12--12--12--12--12--12----------10--10--10--10--10--10----------
---------------------------------8---8---8---8---8---8-----------

---------------------------------0---0---0---0---0---0-----------
-12--12--12--12--12--12--0-------0---0---0---0---0---0---0---0---
-x---x---x---x---x---x---0-------0---0---0---0---0---0---0---0---
-10--10--10--10--10--10----------x---x---x---x---x---x-----------
-12--12--12--12--12--12----------10--10--10--10--10--10----------
---------------------------------8---8---8---8---8---8-----------

----------------------------
-8---8---8---8---8-------0--
-X---X---X---X---X-------7--
-5---5---5---5---5-------X--
-7---7---7---7---7-------7--
----------------------------

Guitar 2 (4/4)
------------------------------------------------------------------
---------0---0---0---0--------------------------------------------
-10--10--10--10--10--10---x---0---10--10--10--10--10--10--x-------
-x---x---x---x---x---x----x-------10--10--10--10--10--10--x-------
-8---8---8---8---8---8----x-------8---8---8---8---8---8-------0---
----------------------------------8---8---8---8---8---8-------0---

------------------------------------------------------------------
---------0---0---0---0--------------------------------------------
-10--10--10--10--10--10---x---0---10--10--10--10--10--10--x-------
-x---x---x---x---x---x----x-------10--10--10--10--10--10--x-------
-8---8---8---8---8---8----x-------8---8---8---8---8---8-------0---
----------------------------------8---8---8---8---8---8-------0---

----------------------------
----------------------------
-7---7---7---7---7-------7--
-x---x---x---x---x-------x--
-7---7---7---7---7-------7--
----------------------------
Comments