At The Drive In - One Armed Scissor Chords & Tabs

 

One Armed Scissor Chords & Tabs

At The Drive In Chords & Tabs

Version: 2 Type: Tab 0 ratings
1 star 2 stars 3 stars 4 stars 5 stars
comments

One Armed Scissor Tab

This is a great song thats very fun to play and if you can get just
 the right fuzz distortion it sounds that much better.

Key: b- bend  #(i.e 1/2)-how much to bend  *-natural harmonic /-slide

Standard Tuning
Fuzz Dist.
e-------------------------------------------------------------------------------------------
B--8--8--8--8------0-----8--8--8--8-----0------8--8--8--8----0------------------------------
G--7--7--7--7------7-----7--7--7--7-----7------7--7--7--7----7------------------------------
D--5--5--5--5------x-----5--5--5--5-----x------5--5--5--5----x------------------------------
A--7--7--7--7------7-----7--7--7--7-----7------7--7--7--7----7------------------------------
E-------------------------------------------------------------------------------------------

[ Tab from: http://www.guitartabs.cc/tabs/a/at_the_drive_in/one_armed_scissor_tab_ver_2.html ]
e-----------12*---------0-----------------12*--------0------------12*-------0---------------------------
A--9----12--------12--------------9---12-------12----------9--12-------12----------------------------------
G--x------------------------------x------------------------x-----------------------------------
D--9------------------------------9------------------------9-----------------------------------
A-------------------------------------------------------------------------------------------
E-------------------------------------------------------------------------------------------

    Chorus
e--------------------------------------------------------------------------------------------------------------------------------0--0--0--0-------------------------------------------
B-8--8--8--8--8---0-----3--3--3--3-----0--------12--12--12--12---0-------0--0--0--0----------------------------------------------x--x--x--x-------------------0------0----------------
G-7--7--7--7--7---7-----0--0--0--0--------------xx--xx--xx--xx---0-------0--0--0--0-----7--7--7--7---7--7--7--7--7---7/10--10----10-10-10-10------------------0------0----------------
D-5--5--5--5--5---x-----4--4--4--4---------10---10--10--10--10-----------x--x--x--x-----x--x--x--x---4--4--4--4--4---------7-----7--7--7--7--0-----------------------0----------------
A-7--7--7--7--7---7-----5--5--5--5---5/----12---12--12--12--12------10---10-10-10-10----7--7--7--7---5--5--5--5--5---5/8---8-----8--8--8--8--0-- 10-10-10-10--10----------------------
E-------------------------------------------------------------------8----8--8--8--8---------------------------------------------------------------8-8-8-8-8---8-----------------------
        Thas most of the riffs if you need any more just email me at Findaway220@aol.com.
Comments