At The Drive-in - Mannequin Republic Chords & Tabs

 

Mannequin Republic Chords & Tabs

At The Drive-in Chords & Tabs

Version: 1 Type: Bass Tab 0 ratings
1 star 2 stars 3 stars 4 stars 5 stars
comments

Mannequin Republic Bass Tab

   
E,A,D,G

after five or so seconds...
G|----------------|  
D|----------------|    part 1 (x4)
A|----------------|
E|0---0-----------|

here's the fast riff (mostly 16th notes)
|------4-------------------------|   
|222222-2------------------------|    part 2 (x6)
|--------2222-2225-5555550000-012|
|--------------------------------|

part 1 (x4)
  
part 2 (x4)
[ Tab from: http://www.guitartabs.cc/tabs/a/at_the_drive_in/mannequin_republic_btab.html ]
here's the chorus
|--------------------------------|
|6--x2---2-2-6-8-4--x0---0-0-3-4-|    part 3 (x4)
|--------------------------------|
|--------------------------------|

bridge thing:
|----------------|
|2---------------|    part 4 (x4)
|---2-----2------| (not sure about this riff)
|------0-----0000|

part 1 (x2)

part 1 variation:
|----------------|
|----------------|    part 5 (x2)  
|----------------|
|0---0-/-7---7--|

part 2 (x4)

part 3 (x4)

part 1 (x2)

part 5 (x4)

rest

part 1 once

x = ghost note
 and / = slides
Comments