At The Drive-in - Heliotrope Chords & Tabs

 

Heliotrope Chords & Tabs

At The Drive-in Chords & Tabs

Version: 1 Type: Bass Tab 0 ratings
1 star 2 stars 3 stars 4 stars 5 stars
comments

Heliotrope Bass Tab

riff one:
G||-------------------------------------------------------------------||
D||*-----------------------------------------------------------------*||
A||*-----------------3-3-3-3-3-3-3-3-5-5-5-5-5-5-5-5-----------------*||
E||--0-0-0-0-0-0-0-0---------------------------------5-5-5-5-5-5-5-5--||


   verse:                                             repeat 3x
G||------------------------------------------------------------||
D||*----------------------------------------------------------*||
A||*--------------3--3-3-3-3-3-3-5---5-5-5-5------------------*||
E||--0---0-0-0-0------------------------------5-5-5-5-5-5-5-5--||

                                                           last repeat
G||-------------------------------------------------------------------||
D||*-----------------------------------------------------------------*||
A||*--------------3--3-3-3-3-3-3-5---5-5-5-5-------------------------*||
E||--0---0-0-0-0------------------------------5---5-5--5---5-5--5--5--||


   Chorus:                     
G||-----------------------------------------------------------------------------||
D||*--------9------------------------------------------------------------------*||
A||*----7-7-----7-9-7----------------------------------------------------------*||
E||--0----------------7--7-7-7---9-7-5-2-2--2-2--2---2-2-2-5-5--5-5--5---5-5-7--|| 


   riff one:
G||-------------------------------------------------------------------||
D||*-----------------------------------------------------------------*||
A||*-----------------3-3-3-3-3-3-3-3-5-5-5-5-5-5-5-5-----------------*||
E||--0-0-0-0-0-0-0-0---------------------------------5-5-5-5-5-5-5-5--||

[ Tab from: http://www.guitartabs.cc/tabs/a/at_the_drive_in/heliotrope_btab.html ]
   verse:                                             repeat 3x
G||------------------------------------------------------------||
D||*----------------------------------------------------------*||
A||*--------------3--3-3-3-3-3-3-5---5-5-5-5------------------*||
E||--0---0-0-0-0------------------------------5-5-5-5-5-5-5-5--||

                                                           last repeat
G||-------------------------------------------------------------------||
D||*-----------------------------------------------------------------*||
A||*--------------3--3-3-3-3-3-3-5---5-5-5-5-------------------------*||
E||--0---0-0-0-0------------------------------5---5-5--5---5-5--5--5--||


   Chorus:                                                             repeat 3x
G||-----------------------------------------------------------------------------||
D||*--------9------------------------------------------------------------------*||
A||*----7-7-----7-9-7----------------------------------------------------------*||
E||--0----------------7--7-7-7---9-7-5-2-2--2-2--2---2-2-2-5-5--5-5--5---5-5-7--|| 


drop out for guitar
come in with this:                     repeat 6x
G||---------------------------------------------||
D||*-------------------------------------------*||
A||*-7--7-7-5--5-5--5-5------------------------*||
E||-----------------------7--7-7-8--8-8--8-8----||


G|--------------------------------------------------|
D|--------------------------------------------------|
A|----------------------------------------7------7--|
E|-0--------2--------3-----3--5--------5------------| 

G|-------------|
D|-------------|
A|-------------|
E|-2--------3--| 

 
riff one:                                                    repeat 5x
G||-------------------------------------------------------------------||
D||*-----------------------------------------------------------------*||
A||*-----------------3-3-3-3-3-3-3-3-5-5-5-5-5-5-5-5-----------------*||
E||--0-0-0-0-0-0-0-0---------------------------------5-5-5-5-5-5-5-5--||


G||----------------------------------------------------||
D||*--------------------------------------------------*||
A||*--------------------------------------------------*||
E||--0-----------------------5--5----------------------||
Comments