At The Drive-in - Give It A Name Chords & Tabs

 

Give It A Name Chords & Tabs

At The Drive-in Chords & Tabs

Version: 1 Type: Tab 0 ratings
1 star 2 stars 3 stars 4 stars 5 stars
comments

Give It A Name Tab

e--------------------------------|---------------------------------|
B--------------------------------|---------------------------------|
G-5--7-5--4-7--5--4--------------|-----9--------5---------2--------|
D--------------------------------|---------------------------------|
A-3--5-3--2-5--3--2--------------|-----7--------3---------0--------|
E--------------------------------|---------------------------------|
Second Intro (pre verse)
e-1------------------------------|---1--------------3---3---3------|
B-1------------------------------|---1--------------3---3---3------|
G-2--9--9--9----9-----9----------|---2--9--9--9-----4---4---4------|
D-3------------------------------|---3--------------5---5---5------|
A-3--7--7--7----7-----7----------|---3--7--7--7-----5---5---5------|
E-1--0--0--0----0-----0----------|---1--0--0--0-----3---3---3------|

Verse-never thought this day would end

(N.B play these chords very messily as this is Omars technique)
(bar chords)

Cmaj-----------------------------|---Am-----------------------------

Chorus-so take your diamond bland shaped tears(bar chords)
[ Tab from: http://www.guitartabs.cc/tabs/a/at_the_drive_in/give_it_a_name_tab.html ]
-Cmaj---------------Gmaj---------|---Am---------------Fmaj------------|
-Cmaj---------------Gmaj---------|---Fmaaj----------------------------|

Repeat Second intro (as before)

Verse (as before)
N.B here the verse changes slightly:

e--------------------------------|----0-----------------------------|
B--------------------------------|----1-----------------------------|
G-5------------------------------|----2-----------------------------|
D--------------------------------|----2-----------------------------|
A-3------------------------------|----0-----------------------------|
E--------------------------------|----------------------------------|
Middle Eight
(bar Chords)
|-E----F-|-C----G-|-E----F-|-C----G-|-E----F-|-G------|-F-----|

here there is a small riff played by the guitar linking the middle eight and
the last chorus:
e-----------------------------------|
B-----------------------------------|
G-----------------------------------|
D-----------------------------------|
A-7-8---10---8-7-8------------------|
E-----------------------------------|

THIS STATION IS NON-OPERATIONAL
Comments