At The Drive-in - Give It A Name Chords & Tabs

 

Give It A Name Chords & Tabs

At The Drive-in Chords & Tabs

Version: 1 Type: Bass Tab 0 ratings
1 star 2 stars 3 stars 4 stars 5 stars
comments

Give It A Name Bass Tab

   
E,A,D,G

intro           twice
-------------------------------|
-------------0---2-2-----------|
3-33-3-2--023-320----0---------|
-------------------------------|

second verse   2 times
-------------------------------|
-------------------------------|
------.--.--.------------------|
1-10--0--0--0-1-100-0333333333-|

verse                 4 times
-------------------------------|
-------------------------------|
-------------------------------|
1-10-0-0-0-0-011100-0333333333-|

chorus     2 times
--------------------------------
--------------------------------
3-3-333-------------------------
-------3-33-33335-5-5551-11-1111

--------------------------------|
--------------------------------|
3-3-333-------------------------|
-------3-33-33331-1-1111-1-11111|

second verse 2 times

verse 4 times
[ Tab from: http://www.guitartabs.cc/tabs/a/at_the_drive_in/give_it_a_name_btab.html ]
bridge #1      twice
--------------------------------|
--------------------------------|
3-------------------.---.---.-.-|
----------------5--05--05--0505-|

--------------------------------|
--------------------------------|
3---------------00-0-0-1-1-1-11-|
--------------------------------|

bridge #2      twice
--------------------------------|
--------------------------------|
--------------------------------|
00-0-0-1-1-1-1---55-5-5-3-3-3-3-|

breakdown   once
--------------------------------|
--------------------------------|
--------------------------------|
00-0-0-1-1-1-1---3--3-1-345-1~--|

chorus   3 times

end on a held C (3rd fret of A string)

notes
. above note = really short (stacatto)
~ = hold for longer than shown

the bass is really hard to hear in
this song. basically it just follows
the guitar. he plays with a pick, so
use one to get a closer sound. also,
the verse may be played an octave higher,
i can't tell. thanks for tom for helping 
me with the chorus.
Comments