At The Drive In - Cosmonaut Chords & Tabs

 

Cosmonaut Chords & Tabs

At The Drive In Chords & Tabs

Version: 1 Type: Tab 0 ratings
1 star 2 stars 3 stars 4 stars 5 stars
comments

Cosmonaut Tab

Band: At The Drive-In
Song: Cosmonaut
Album: Relationship of Command Album
Tabed by: Tim Dobson (spadey) Who else?


INTRO
Guitar 1 Omar - Distortion and Heavy, Fast Chorus Effect
E------------------7----------------8------------------
B--10--7-10--7--7----10--7-10--7--7----10--7-10--7--7--
G------------------------------------------------------
D------------------------------------------------------
A------------------------------------------------------
E------------------------------------------------------

E--7-----------------7--------7-----------------7------
B-----10--7-10--7-10----10--7-----7-10--7-10--7----10--
G------------------------------------------------------
D------------------------------------------------------
A------------------------------------------------------
E------------------------------------------------------

E--------------7-----------------7---------------------
B--10--7-10--7----7--10--7-10--7----7--10-7------------
G------------------------------------------------------
D------------------------------------------------------
A------------------------------------------------------
E------------------------------------------------------

Guitar 2 Jim - Distortion       |-Strum Fast-|
E------------------------------------------------------
B------------------------------------------------------
G--999-9-999-9-99-777-7-777-7-77--12------14-----------
D--999-9-999-9-99-777-7-777-7-77--12------14-----------
A--777-7-777-7-77-555-5-555-5-55--10------12-----------
E------------------------------------------------------

[ Tab from: http://www.guitartabs.cc/tabs/a/at_the_drive_in/cosmonaut_tab.html ]
VERSE
G1 - Verse .19 Seconds With Distortion, Chorus, and Phaser.
E--5-7-2-3-5-7---0----0----0----0----0-----------------
B--5-7-3-3-5-7-0-4b-0-4b-0-4b-0-4b-0-4b----------------
G------------------------------------------------------
D------------------------------------------------------
A------------------------------------------------------
E------------------------------------------------------


G2 - Verse .19 Seconds With Distortion.
E------------------------------------------------------
B------------------------------------------------------
G--9-7--12-14------------------------------------------
D--9-7--12-14------------------------------------------
A--7-5--10-12------------------------------------------
E------------------------------------------------------

Chorus
G1 .39 Minutes 

E---7*---------7---------------------------------------
B---7*-8-----------10---7------------------------------
G---4*-7--7--------------------------------------------
D---5*-0--7--------------------------------------------
A------7--5--9---9----9--------------------------------
E------0-----------------------------------------------

Back to INTRO

1.16 Minutes - Verse

1.55 - "New" Cborus
G1
E--0-0-0-0--------------------------------------------
B--0-0-0-0--------------------------------------------
G--9-7-4-2--11-12-7-9---------------------------------
D--9-7-4-2--x--x--x-x---------------------------------
A--7-5-2-0--9--10-5-7---------------------------------
E-----------------------------------------------------


And thats a rap. Another at the drive-in tab by me. 
You won't find them any where else!!
Take care.
Spadey

E-mail me at CrashedTD@aol.com  for any comments and tell
me that i'm not wasting my time.
Chears.
Comments