At The Drive In - Cosmonaut Chords & Tabs

 

Cosmonaut Chords & Tabs

At The Drive In Chords & Tabs

Version: 1 Type: Bass Tab 0 ratings
1 star 2 stars 3 stars 4 stars 5 stars
comments

Cosmonaut Bass Tab

   
Pre Verse (X2)

G|-----------------------------------------------------------------|
D|-----------------------------------------------------------------|
A|-----------------------------------------------------------------|
E|-5-5-5-5-5-5-5-5-5-5-5-5-5-5-5-5-7-7-7-7-7-7-7-7-7-7-7-7-7-7-7-7-|

G|-----------------------------------------------------------------|
D|-----------------------------------------------------------------|
A|-5-5-5-5-5-5-5-5-5-5-5-5-5-5-5-5-7-7-7-7-7-7-7-7-7-7-7-7-7-7-7-7-|
E|-----------------------------------------------------------------|

Verse (X2)

G|----------------------------------------------------------|
D|----------------------------------------------------------|
A|----------------------------------------------------------|
E|-7-7--7-7-7-7--7--7--7-7-7-7--2-2--2-2-2-2--2--2--2-2-1-0-|

G|--------------------------------------------------------------------|
D|--------------------------------------------------------------------|
A|--------------------------------------------------------------------|
E|-0-0-0-0-0-0-0-0-0-0-0-0-0-0-0-0-5-5-5-5-5-5-5-5-5-512/512/512/5----|

Chorus (X2)

G|--------------------------------------|
D|--------------------------------------|
A|--------------------------------------|
E|-2-2-2-2-2---2-2-2--0-0-0-0-0---0-0-0-|

G|---------------------------------|
D|---------------------------------|
A|---------------------------------|
E|-4-4-4-4-4-4-4-4-4-4-4-4-4-4-4-4-|

Pre Verse (X2)

Verse (X2)

Chorus (X2)

Pre Bridge (X1)
[ Tab from: http://www.guitartabs.cc/tabs/a/at_the_drive_in/cosmonaut_btab.html ]
G|-------------------------------|
D|-------------------------------|
A|-------------------------------|
E|-0-----------------------------|

Bridge1 (X2)

G|----------------------------------------------|
D|----------------------------------------------|
A|-7-7-7-7--5-5-5-5-5-5-------------------------|
E|----------------------7-7-7-7-7-7-5-5-5-5-5-5-|

Bridge2 (X2)

G|-----------------------------------------------------------------|
D|-----------------------------------------------------------------|
A|-7-7-7-7-7-7-7-7-5-5-5-5-5-5-5-5---------------------------------|
E|---------------------------------7-7-7-7-7-7-7-7-5-5-5-5-5-5-5-5-|

Bridge1 (X2)

Breakdown (X1)

G|----------------------------------------------------------------|
D|----------------------------------------------------------------|
A|----------------------------------------------------------------|
E|-0-------------2---------------0---------------4----------------|

G|-----------------------------------------------------------------|
D|---------------2-4-----------------------------------------------|
A|-------------------------------------------------7-7-7-7-7-7-7-7-|
E|-0--0--------------------------0--0-0-0-0-0-0-0------------------|

Bridge1 (X2)

Bridge2 (X4)

End on A|-7


Ok here's the timing:


Pre Verse (X2) - (0:00)
Verse (X2) - (0:19)
Chorus (X2) - (0:38)
Pre Verse (X2) - (0:56)
Verse (X2) - (1:16)
Chorus (X2) - (1:34)
Pre Bridge (X1) - (1:51)
Bridge1 (X2) - (1:56)
Bridge2 (X2) - (2:04)
Bridge1 (X2) - (2:14)
Breakdown (X1) - (2:23)
Bridge1 (X2) - (2:44)
Bridge2 (X4) - (2:53)
A|-7 - (3:12)
Comments