At The Drive-in - Catacombs Chords & Tabs

 

Catacombs Chords & Tabs

At The Drive-in Chords & Tabs

Version: 2 Type: Tab 0 ratings
1 star 2 stars 3 stars 4 stars 5 stars
comments

Catacombs Tab

At the drive-in - Catacoms

Tabbed by Itamar Berman (itargod@hotmail.com)

Since I did not find a single entirely correct tab for this song I decided to tab it myself.

Opening:
E-------------------------------------------|
B-------------------------------------------|
G-------------------------------------------|
D---------------------9---------------------|
A------9-9-9----------------------------9---|
E-0-0---------10-10----3-3-5-5-5-7-7--------|

Pre-verse:

E-----        ----        -X--|
B--15         -13-       -12--|
G--12  [x3]   -15- [x3]  -12--|  [x9]
D--X          -X-        -X---|
A--12         -12-       -12--|
E--12         -12-       -12--|

First verse is the Opening (Guitar 1) played along the Pre-verse (Guitar 2).
[ Tab from: http://www.guitartabs.cc/tabs/a/at_the_drive_in/catacombs_tab_ver_2.html ]
Quiet verse strarting from "Hey you...":  (Played twice with slight changes)

E------------------7--------|
B------3--------------------|
G--0------------7-----7/9---|
D--------0-2----------------|
A---------------------------|
E---------------------------|

Next loud part:

E---      ---       ---         ---|
B---      ---       ---         ---|
G--0 [x10]--- [x10] --- [x10]   ---|  [x10]
D--0      -12-      ---         -6-|
A--1      -9-       -1-         -4-|
E--3      -10-      -1-         ---|

Next "Hey you..." part: Guitar 1 plays the Opening verse, and guitar 2 plays the following:

E-----       ---       ---|
B---         ---       ---|
G----  [x3]  --- [x3]  ---|  [x9]
D---8        ---       -7-|
A--10        -9-       -8-|
E----        -10-      ---|
Comments