At The Drive-in - Autorelocator Chords & Tabs

 

Autorelocator Chords & Tabs

At The Drive-in Chords & Tabs

Version: 1 Type: Bass Tab 0 ratings
1 star 2 stars 3 stars 4 stars 5 stars
comments

Autorelocator Bass Tab

        Part 1
0:24
    G-----------------------------------------|
    D------------2-2----------------2-2-------|
    A--3-0-0---2-----0----3-0-0---2-----0-----|
    E--------0------------------0-------------|  x4

Break 1:07-1:17

1:17 G-----------------------------------------|
     D------------2-2----------------2-2-------|
     A--3-0-0---2-----0----3-0-0---2-----0-----|
     E--------0------------------0-------------|  x3

Break 1:48-2:00

2:00 G----------------------------------------------------------|
     D----------------------------------------------------------|
     A-000--0----03----000--0-------000--0----03----000---0-----|
     E----03---03---------03---0-------03---03----------03---0--|

     G----------------------------------------------------------|
     D----------------------------------------------------------|
     A-000--0----03----000--0-------000--0----03----000---0-----|
     E----03---03---------03---0-------03---03----------03---0--|

2:22 G------------------------------|
     D------------------------------|
     A-000--0--0---03----000--0-----|
     E----03-03-303---------03---0--|

     G------------------------------|
     D------------------------------|
     A-000--0--0---03----000--0-----|
     E----03-03-303---------03---0--|

2:32 G---------------------------------------------------------|
     D---------------------------------------------------------|
     A-000--0--0---03--000--0--0---03--000--0----03--000--0----|
     E----03-03-303-------03-03-303-------03---03-------03---0-|
         Part 2

     G---------------------------------------------------------|
     D---------------------------------------------------------|
     A-000--0--0---03--000--0--0---03--000--0----03--000--0----|
     E----03-03-303-------03-03-303-------03---03-------03---0-|

2:54 G----------------------------------------------------------|
     D----------------------------------------------------------|
     A-000--0----03----000--0-------000--0----03----000---0-----|
     E----03---03---------03---0-------03---03----------03---0--|
[ Tab from: http://www.guitartabs.cc/tabs/a/at_the_drive_in/autorelocator_btab.html ]
Break 3:05-3:15
     G-------------------------------------------------------|
     D-------------------------------------------------------|
     A---3-2--0-2--3-2--0-2--3-2--0-2--3-2--0-2--------------|
     E-------------------------------------------------------|

     G-------------------------------------------------------|
     D-------------------------------------------------------|
     A---3-2--0-2--3-2--0-2--3-2--0-2--3-2--0-2--------------|
     E-------------------------------------------------------|

     G-------------------------------------------------------|
     D-------------------------------------------------------|
     A---3-2--0-2--3-2--0-2--3-2--0-2--3-2--0-2--------------|
     E-------------------------------------------------------|

     G-------------------------------------------------------|
     D-------------------------------------------------------|
     A---3-2--0-2--3-2--0-2--3-2--0-2--3-2--0-2--------------|
     E-------------------------------------------------------|

     G-------------------------------------------------------|
     D-------------------------------------------------------|
     A---3-2--0-2--3-2--0-2--3-2--0-2--3-2--0-2--------------|
     E-------------------------------------------------------|

4:08 G---------------------------------------------|
     D---------------2-2-------------------2-2-----|
     A--3-0-0---2------0----3-0-0---2------0-------|
     E----------0----------------------0-----------|


     G---------------------------------------------|
     D---------------2-2-------------------2-2-----|
     A--3-0-0---2------0----3-0-0---2------0-------|
     E----------0----------------------0-----------|

     G---------------------------------------------|
     D---------------2-2-------------------2-2-----|
     A--3-0-0---2------0----3-0-0---2------0-------|
     E----------0----------------------0-----------|

     G---------------------------------------------|
     D---------------2-2-------------------2-2-----|
     A--3-0-0---2------0----3-0-0---2------0-------|
     E----------0----------------------0-----------|
Comments