At The Drive In - Arcasenal Chords & Tabs

 

Arcasenal Chords & Tabs

At The Drive In Chords & Tabs

Version: 2 Type: Tab 0 ratings
1 star 2 stars 3 stars 4 stars 5 stars
comments

Arcasenal Tab

Title: Arcarsenal
Band: At The Drive-In
Album: Relationship of Command
Year: 2001
Tabbed by: Tim Dobson (Spadey)
Tuning: Stadared (EADGBE)

2 Guitars are going, but I got the main intro riff down.

Intro Riff - Heavy FX Going on here, Omar does this for awhile
e|-10--12-----15--10--12--x--10--12-----15--10--12---|
B|--------12------------------------12---------------|
G|---------------------------------------------------|
D|---------------------------------------------------|	THEN
A|---------------------------------------------------|
E|---------------------------------------------------|

Pre-Verse Riff - Repeat about 4 times
e|-12-12--12--12-x-12-x-x---xxxx---------|
B|-12-12--12--12-x-12-x-x---xxxx---------|
G|-12-12--12--12-x-12-x-x---xxxx---------| THEN
D|-14-14--14--14-x-14-x-x---xxxx---------|
A|---------------------------------------|
E|---------------------------------------|
[ Tab from: http://www.guitartabs.cc/tabs/a/at_the_drive_in/arcasenal_tab_ver_2.html ]
Verse - Solo thinggy (I must have read a thousand faces....)
Repeat however many times....
e|------------------------------------------------------|
B|-----------------------------12~---Let Ring-----------|
G|-/16--14-----12--11-----16---12~---Let Ring-----------|
D|---------14---------12--------------------------------|
A|------------------------------------------------------|
E|------------------------------------------------------|

Repeat Pre-Verse Riff when he's singing (BEWARE! BE-WARE!)

Bridge Riff - 2 Guitar Parts - More FX Going Here
e|-12--10-----15--10--12--x--12--10-----15--10--12---|
B|--------12------------------------12---------------|
G|---------------------------------------------------|
D|--------------------------------------10---5---7---|
A|--7---5-----10---5---7--x---7---5--7---------------|
E|---------7-----------------------------------------|


The second at the drive-in tabbed on to the net. I promise more.
I think i am the only person to have at the drive in tabs on
a tabs page. I'll keep them rolling in.
Comments