At The Drive-in - Arcarsenal Chords & Tabs

 

Arcarsenal Chords & Tabs

At The Drive-in Chords & Tabs

Version: 1 Type: Tab 0 ratings
1 star 2 stars 3 stars 4 stars 5 stars
comments

Arcarsenal Tab

Band:      At The Drive-In
Album:     Relationship of Command
Song:      Arcarsenal
Tabbed By: punk_ass_biotch16@hotmail.com
Date:  11-7-02

INTRO PART 1
E-------15--------------
G-15-14----15-17--------
B-----------------------
D-----------------------
A-----------------------
E-----------------------

INTRO PART 2
E-12-12-12-12-12----
G-X--X--X--X--X-----
B-9--9--9--9--9-----
D-9--9--9--9--9-----
A-10-10-10-10-10----
E-------------------
[ Tab from: http://www.guitartabs.cc/tabs/a/at_the_drive_in/arcarsenal_tab.html ]
VERSE                              ALSO..
E------------------10----10---10--   -10----12-------
G-12-10------------10----10---10--   ----------------
B-------9-12-11-11----12---12-----   ----12----10----
D---------------------12----------   -------------12-
A---------------------------------   ----------------
E---------------------------------   ----------------

"SO WHOS IN CHARGE IN HERE"
E--------------------------------
G------------------------8--8--8-
B--------------------------------
D--------------------------------
A-9-10-9-555-9-10-9-777--10-10-10
E--------------------------------

BREAKDOWN
E----------------------------------------------------------------------
G----------------------------------------------------------------------
B----------------------------------------------------------------------
D----777---777---------------------------------------------------------
A-777---777---777-10-10-10-777-10-10-10-777-999-777-999-777-888-777-888
E----------------------------------------------------------------------
Comments