At The Drive In - 198d Chords & Tabs

 

198d Chords & Tabs

At The Drive In Chords & Tabs

Version: 1 Type: Tab 0 ratings
1 star 2 stars 3 stars 4 stars 5 stars
comments

198d Tab

#----------------------------------PLEASE NOTE--------------------------------#
#This file is the author's own work and represents their interpretation of the#
#song. You may only use this file for private study, scholarship, or research.#
#-----------------------------------------------------------------------------#
#-- File created with Instab - http://www.pconline.com/~smcarey/instab.html --#
#-----------------------------------------------------------------------------#

Author/Artist: At The Drive In
Title: 198d
Album: Vaya
Transcribed by: Kyle S.
Email: hideo17@hotmail.com

Intro/Main riff...

------------------------------------------------------------------------------
------------------------------------------------------------------------------
-2-2-2-2-2-2-2p0--------------------------------------------------------------
------------------------------------------------------------------------------
------------------------------------------------------------------------------
------------------------------------------------------------------------------
                                                                              
Verse riff... (Play this over main during verses)

------------------------------------------------------------------------------
-3/10/8vvv-8p7--0h3vvv-5vvv-5-5p3---------------------------------------------
------------------------------------------------------------------------------
------------------------------------------------------------------------------
------------------------------------------------------------------------------
------------------------------------------------------------------------------
                                                                              
Chorus... (Strumming is not exact, listen to song for timing and changes)
[ Tab from: http://www.guitartabs.cc/tabs/a/at_the_drive_in/198d_tab.html ]
-----Guitar 1------------------------------------------------------------------
---------------------------------Guitar 2--------------------------------------
-11-11-11/9-9-9-9/11-----------------------------------------------------------
-11-11-11/9-9-9-9/11----------4--4--4/2-2-2-2/4--------------------------------
-9--9--9/-7-7-7-7/9-----------4--4--4/2-2-2-2/4--------------------------------
------------------------------2--2--2/0-0-0-0/2--------------------------------
                                                                              
Interlude... (Piano tabbed out for guitar)

----17vvvv-15vvvv-14p12p10vvv-----10vvvv--------------------------------------
-15---------------------------12^---------------------------------------------
------------------------------------------------------------------------------
------------------------------------------------------------------------------
------------------------------------------------------------------------------
------------------------------------------------------------------------------
                                                                              
Bridge/Breakdown... (Played right after interlude, strumming is not exact [again])

-------------------------------------------------------------------------------
-------------------------------------------------------------------------------
-4-4---------------------------------------------------------------------------
-4-4--7-7---5-5-x-5-5----------------------------------------------------------
-2-2--7-7---5-5-x-5-5----------------------------------------------------------
------5-5---3-3-x-3-3----------------------------------------------------------

-----

Okay, this has been my first real tab, it sounds right to me, for the most part.
But if you have any corrections, things to add, questions or suggestions, PLEASE don't hesitate to e-mail me.
Thanks.

P.S. - Thanks to dadfad on the GTU boards for getting me started, I really appreciate it. 
                                                                              

Comments