Astrud - No Estaria Mal Chords & Tabs

 

No Estaria Mal Chords & Tabs

Astrud Chords & Tabs

Version: 1 Type: Tab 0 ratings
1 star 2 stars 3 stars 4 stars 5 stars
comments

No Estaria Mal Tab

   
#--------------------------------Guitar Tab------------------------------------#
#                         Astrud - No estarĂ­a mal ...                          #
#                            Tabbed By XaViMei                                 #
#                           XaViMei@hotmail.com                                #
#------------------------------------------------------------------------------#

Astrud - No estarĂ­a mal no tener que saber que es lo que va a pasar 


(Verse): Do  Sol  Do  Sol  Fa
[ Tab from: http://www.guitartabs.cc/tabs/a/astrud/no_estaria_mal_tab.html ]
     C   G   C   G   F 
e:---0---3---0---3---1-------------------------------------------------|
B:---1---0---1---0---1-------------------------------------------------|
G:---0---0---0---0---2-------------------------------------------------|
D:---2---0---2---0---3-------------------------------------------------|
A:---3---2---3---2---3-------------------------------------------------|
E:---0---3---0---3---1-------------------------------------------------|


(Pre-Chorus): Sol  Re  Fa  Do

     G   D   F   C 
e:---3---2---1---0-----------------------------------------------------|
B:---0---3---1---1-----------------------------------------------------|
G:---0---2---2---0-----------------------------------------------------|
D:---0-------3---2-----------------------------------------------------|
A:---2-------3---3-----------------------------------------------------|
E:---3-------1---0-----------------------------------------------------|



(Chorus): Re  Sim  Fa#m  Sol  (Fa) 
Comments