Astrud - La Boda Solo Chords & Tabs

 

La Boda Solo Chords & Tabs

Astrud Chords & Tabs

Version: 1 Type: Tab 0 ratings
1 star 2 stars 3 stars 4 stars 5 stars
comments

La Boda Solo Tab

#--------------------------------Guitar Tab------------------------------------#
#                          Astrud - La boda (solo)                             #
#                            Tabbed By XaViMei                                 #
#                           xavimei@hotmail.com                                #
#------------------------------------------------------------------------------#

Astrud - La boda (solo)


e:---------------------------------|(x2) (2:14)
B:------------------------6--5--3--|
G:--4--2--0--7---7--5--3-----------|
D:---------------------------------|
A:---------------------------------|
E:---------------------------------|
[ Tab from: http://www.guitartabs.cc/tabs/a/astrud/la_boda_solo_tab.html ]
e:-------------------------------------12~--------------|
B:--12~--8--7--10--12--10--12--10--12-------8--8--8--6--|
G:------------------------------------------------------|
D:------------------------------------------------------|
A:------------------------------------------------------|
E:------------------------------------------------------|
  
e:------13--13---------------------------13--15---------------------------|
B:--15----------15--13--11--13--15~--15----------15--13--11--13--13--15~--|
G:------------------------------------------------------------------------|
D:------------------------------------------------------------------------|
A:------------------------------------------------------------------------|
E:------------------------------------------------------------------------|


Comments