Asteroidica - Wintergate Chords & Tabs

 

Wintergate Chords & Tabs

Asteroidica Chords & Tabs

Version: 1 Type: Tab 0 ratings
1 star 2 stars 3 stars 4 stars 5 stars
comments

Wintergate Tab

   
WWW.ASTEROIDICA.TK

Author/Artist: Asteroidica
Title: Wintergate
Album: Grave Land Of Heroes
Transcribed by: Jimmy Karlsson


 G.1 + G.2 [Riff A]
-|-----------------------------------------------------------------------|---|
-|-----------------------------------------------------------------------|---|
-|-----------------------------------------------------------------------|4x-|
-|-----------------------------------------------------------------------|---|
-|---------10-10-9-9---------10-10-9-9--7-7-7-7-5-5-7-7------------------|---|
-|-7-7-7-7-----------7-7-7-7---------------------------------------------|---|

 G.3  [Riff A]
-|-----------------------------------------------------------------------|---|
-|-----------------------------------------------------------------------|---|
-|-----------------------------------------------------------------------|3x-|
-|-------------16-16-17-17-----------16-16-17-17-14-14-14-14-12-12-14-14-|---|
-|-14-14-14-14------------14-14-14-14------------------------------------|---|
-|-----------------------------------------------------------------------|---|

 G.1 [Riff B]
-|-----------------------------------------------------------------------|----|
-|-----------------------------------------------------------------------|----|
-|-----------------------------------------------------------------------|10x-|
-|-----------------------------------------------------------------------|----|
-|-7-------9---10-10---------10---9----10----------10-------9------10--12|----|
-|---0-0-0---0-------8-8-8-8----8---8-----10-10-10----10-10---10-10--10--|----|

 G.2 [Riff B Comp]
-|----------------------------------------------------------------------------|
-|----------------------------------------------------------------------------|
-|-9-------------------------------------------------------------------9------|
-|-9-------------10-------------12-------12-------12-------12-------12-9------|
-|-7-7-7-7-7-7-7-10-------------12-------12-------12-------12-------12-7-7-7--|
-|---------------8--8-8-8-8-8-8-10-10-10-10-10-10-10-10-10-10-10-10-10--------|


-----------------------------------------------------|--|---------------------|
-----------------------------------------------------|--|---------------------|
------------------------12---7-----------------------|2x|---------------------|
---------10-------------12-0-7-----7-----7-----7---7-|--|---------------------|
-7-7-7-7-10-------------10-0-5-5-5-5-5-5-5-5-5-5-5-5-|--|---------------------|
---------8--8-8-8-8-8-8------------------------------|--|---------------------|

 G.2 [Riff B Melody]
-|--------------------------------------------|--|----------------------------|
-|--------------------------------------------|--|----------------------------|
-|9v-11-11h12------12-11-------14-12-11h12-11-|2x|----------------------------|
-|------------10v--------12v------------------|--|----------------------------|
-|--------------------------------------------|--|----------------------------|
-|--------------------------------------------|--|----------------------------|

 G.2 [Riff B Melody 2]
-|----------------------------------------------------------------------|--|--|
-|----------------------------------------------------------------------|--|--|
-|9-11-11h12------12-11----------------12p11h12p11h12-12\14-12-11h12p11-|2x|--|
-|-----------10v--------12p11h12p11h12----------------------------------|--|--|
-|----------------------------------------------------------------------|--|--|
-|----------------------------------------------------------------------|--|--|

 Then Riff B Comp 1x!      Now G.2 [Riff C] 2nd time both guitars!
-|------------------------------------------------------------------|--|------|
-|------------------------------------------------------------------|--|------|
-|------------------------------------------------------------------|6x|------|
-|------------------------------------------------------------------|--|------|
-|-----------------3-3-3-3-3-3-3-3-----------------5-5-5-3-3-3-2-3v-|--|------|
-|-0-0-0-0-0-0-0-0-----------------3-3-3-3-3-3-3-3------------------|--|------|

 G.1 [Riff C] 3rd-6th time
-|----------------------------------------------------------------------------|
-|-----8-----8-----8-----8-----8-----8-----8-----8-8\10-10-10-12-12-10-12-13--|
-|-7-9---7-9---7-9---7-9---7-9---7-9---7-9---7-9------------------------------|
-|----------------------------------------------------------------------------|
-|----------------------------------------------------------------------------|
-|----------------------------------------------------------------------------|


-10------------------------------------------------------------------|--|-----|
----13-12-10---------------------------------------------------------|--|-----|
-------------12-11-12-14-12-11-12------------------------------------|2x|-----|
---------------------------------------------------------------------|--|-----|
---------------------------------------------------------------------|--|-----|
---------------------------------------------------------------------|--|-----|

 [Riff D] Both guitars
-|-------------------------------------------------------------------|--|-----|
-|-------------------------------------------------------------------|--|-----|
-|----------------------------------------------------3-2------------|2x|-----|
-|-----2---3---5-5-3-2-3-2--------2---3---5-5-3-2-3-2----------------|--|-----|
-|-0-0---0---0-------------3--0-0---0---0----------------------------|--|-----|
-|-------------------------------------------------------------------|--|-----|

 G.1 [Riff E]
-|-----------------------------------------------------------------------|---|
-|-----------------------------------------------------------------------|---|
-|-----------------------------------------------------------------------|6x-|
-|-2-2--2--2----2-2--2--2--2--2----2--2-2--2---2-2---2-2----------3-2----|---|
-|-2-2--2--2h3--2-2--2--2--2--2h3--2--2-2--2---2-2h3-2-2------3-2-----3-2|---|
-|-0-0--0--0----0-0--0--0--0--0----0--0-0--0---0-0---0-0--3-2------------|---|

 G.2 [Riff E] 1st and 2nd time
-|-----------------------------------------------------------|--|-------------|
-|-----------------------------------------------------------|--|-------------|
-|-----------------------------------------------------------|2x|-------------|
-|---------------------------------------------------3-2-----|--|-------------|
-|-2-----2h3-----2-----2h3-----2-----2h3---------3-2-----3-2-|--|-------------|
-|-0-0-0-----0-0-0-0-0-----0-0-0-0-0-----0-0-3-2-------------|--|-------------|

 G.2 [Riff E] 3rd and 4th time
-|----------------------------------------------------------|--|--------------|
-|----------------------------------------------------------|--|--------------|
-|----------------------------------------------------------|2x|--------------|
-|--------------------------------------------------3-2-----|--|--------------|
-|-2-----3v-----2v-----3v-----2v-----3v---------3-2-----3-2-|--|--------------|
-|-0-0-0----0-0----0-0----0-0----0-0----0-0-3-2-------------|--|--------------|

 G.2 [Riff E] 5th and 6th time
-|----------------------------------------------------------|--|--------------|
-|----------------------------------------------------------|--|--------------|
-|-\14-15-14----------\15-15-14----------\17-15-14----------|2x|--------------|
-|-----------15-14--------------15-14--------------15-14----|--|--------------|
-|-----------------15-----------------15-----------------15-|--|--------------|
-|----------------------------------------------------------|--|--------------|

     [Riff F] Both guitars
-|-----------------------------------------------------------------------|---|
-|-----------------------------------------------------------------------|---|
-|-----------------------------------------------------------------------|3x-|
-|-5--6--3--5------------2---------------2-----------2---------------3---|---|
-|-5--6--3--5--------2-3---3-2-------2-3---------2-3---3-2-------2-3-----|---|
-|-3--4--1--3--0-1-4-----------0-1-4-------0-1-4-----------0-1-4---------|---|

 G.1 [Riff G]
-|----------|--|---------------------------------------------|--|-------------|
-|----------|--|---------------------------------------------|--|-------------|
-|----------|1x|---------------------------------------------|4x|-------------|
-|-5--6--3-5|--|2-----3\6-----2-----7/6-----2-----3\6--------|--|-------------|
-|-5--6--3-5|--|2-----3\6-----2-----7/6-----2-----3\6--------|--|-------------|
-|-3--4--1-3|--|0-0-0-1\4-0-0-0-0-0-5/4-0-0-0-0-0-1\4-0-0-4-3|--|-------------|

 G.2 [Riff G] 1st and 2nd time
-|----------|--|-----------------------------------------------|--|-----------|
-|----------|--|-----------------------------------------------|--|-----------|
-|----------|1x|-----------------------------------------------|2x|-----------|
-|-5--6--3-5|--|2-----3\6-----2-----7/6-----2-----3\6----------|--|-----------|
-|-5--6--3-5|--|2-----3\6-----2-----7/6-----2-----3\6----------|--|-----------|
-|-3--4--1-3|--|0-0-0-1\4-0-0-0-0-0-5/4-0-0-0-0-0-1\4-0-0-4v-3v|--|-----------|

 G.2 [Riff G] 3rd and 4th time
-|--------------------------------------------------------|--|----------------|
-|--------------------------------------------------------|--|----------------|
-|--------------------------------------------------------|2x|----------------|
-|------------------------------------------------3-2-----|--|----------------|
-|2-----3v----2v-----3v-----2v-----3v---------3-2-----3-2-|--|----------------|
-|0-0-0----0-0---0-0----0-0----0-0----0-0-3-2-------------|--|----------------|
[ Tab from: http://www.guitartabs.cc/tabs/a/asteroidica/wintergate_tab.html ]
 G.1 [Riff H]
-|---------------------------------------------------------------------------|
-|-----------10-12-13-15-----------------------------------------------------|
-|-------8-9-----------------------------------------------------------------|
-|---7-9---------------------------------------------------------------------|
-|-7-------------------------------------------------------------------------|
-|---------------------------------------------------------------------------|

 G.2 [Riff H]
-|---------------------------------------------------------------------------|
-|---------------------------------------------------------------------------|
-|---------------------------------------------------------------------------|
-|-----------7-9-10-12-------------------------------------------------------|
-|-------6-7-----------------------------------------------------------------|
-|-0-5-7---------------------------------------------------------------------|

 G.1 [Riff I]
-|-15-14-14h15p14-12--19-17--17-19-19b-17-17h19p17---------|--|---------------|
-|---------------------------------------------------------|--|---------------|
-|---------------------------------------------------------|2x|---------------|
-|---------------------------------------------------------|--|---------------|
-|---------------------------------------------------------|--|---------------|
-|---------------------------------------------------------|--|---------------|

 G.2 [Riff I]
-|---------------------------------------------------------|--|---------------|
-|------------------12-10-10-12-12b-10-10h12---------------|--|---------------|
-|-12-11-11h12p11-9----------------------------------------|2x|---------------|
-|---------------------------------------------------------|--|---------------|
-|---------------------------------------------------------|--|---------------|
-|---------------------------------------------------------|--|---------------|

 G.3 [Riff I]
-|---------------------------------------------------------|--|---------------|
-|---------------------------------------------------------|--|---------------|
-|-9----9---9----9------9----7------7----7---7----7--------|2x|---------------|
-|-9----9---9----9------9----7------7----7---7----7--------|--|---------------|
-|-7-7--7-7-7--7-7--7-7-7----5-5-5--5-5--5-5-5--5-5--------|--|---------------|
-|---------------------------------------------------------|--|---------------|

 G.1 [Riff I]
-|-12---14-15-----12-10-10h12p10--12---14-15--19b-17-17h19p7---|--|-----------|
-|------------12-----------------------------------------------|--|-----------|
-|-------------------------------------------------------------|2x|-----------|
-|-------------------------------------------------------------|--|-----------|
-|-------------------------------------------------------------|--|-----------|
-|-------------------------------------------------------------|--|-----------|

 G.2 [Riff I]
-|-----------------------------------------------------------------------|---|
-|---------------------------------------------12b-12b-12-11v--12b-12-11v|---|
-|-9v---11-12------9-7v--9b-9-7v---9v---11-12v---------------------------|2x-|
-|------------10v--------------------------------------------------------|---|
-|-----------------------------------------------------------------------|---|
-|-----------------------------------------------------------------------|---|

 G.3 [Riff I]
-|----------------------------------------------------------------------------|
-|----------------------------------------------------------------------------|
-|-9-----9-----9-----9-----9-----9-----9--------------------------7-----7-----|
-|-9-----9-----9-----9-----9-----9-----9--------7-9----9-7--------7-----7-----|
-|-7-7-7-7-7-7-7-7-7-7-7-7-7-7-7-7-7-7-7-7-9-10-----10-----10-9-7-5-5-5-5-5-5-|
-|----------------------------------------------------------------------------|


------------------------------------------------------------------------|----|
------------------------------------------------------------------------|----|
-----7-------7-----7-------7-----7-----7--------------------------------|4x--|
-----7-------7-----7-------7-----7-----7--------------------------------|----|
-5-5-5-5-5-5-5-5-5-5-5-5-5-5-5-5-5-5-5-5--------------------------------|----|
------------------------------------------------------------------------|----|

 G.1 [Riff J]
-|-0-7--------------0-7--------------0-7--------------0-10-8-7----------|--|--|
-|-----10-8-7h8p7p0-----10-8-7h8p7p0-----10-8-7h8p7p0----------10-8-7---|--|--|
-|----------------------------------------------------------------------|2x|--|
-|----------------------------------------------------------------------|--|--|
-|----------------------------------------------------------------------|--|--|
-|----------------------------------------------------------------------|--|--|

 G.2 [Riff J]
-|----------------------------------------------------------------------------|
-|----------------------------------------------------------------------------|
-|-9----------7----------5-------------5--------------9------------7----------|
-|-9----------7----------5-------------5--------------9------------7----------|
-|-7----------5----------3-3-3-3-3-3-3-3-3-3-3-3-3-3--7------------5----------|
-|----------------------------------------------------------------------------|


------------------------------------------------------------------------------|
------------------------------------------------------------------------------|
------------------------------9----------7---------5-------------5------------|
-7-------------7--------------9----------7---------5-------------5------------|
-7-------------7--------------7----------5---------3-3-3-3-3-3-3-3-3-3-3-3-3--|
-5-5-5-5-5-5-5-5-5-5-5-5-5-5--------------------------------------------------|


--------------------------------------------------------|---------------------|
--------------------------------------------------------|---------------------|
----9-----------7---------------------------------------|---------------------|
----9-----------7-----------7-------------5-------------|---------------------|
-3--7-----------5-----------7-------------5-------------|---------------------|
----------------------------5-5-5-5-5-5-5-3-3-3-3-3-3-3-|---------------------|

 G.1 [Riff K]
-|----------------------------------------------------------------------------|
-|----------------------------------------------------------------------------|
-|-9-----9-----9-----9-----9-----9-7-----7-----7-----7-----7-----7-----7------|
-|-9-----9-----9-----9-----9-----9-7-----7-----7-----7-----7-----7-----7------|
-|-7-7-7-7-7-7-7-7-7-7-7-7-7-7-7-7-5-5-5-5-5-5-5-5-5-5-5-5-5-5-5-5-5-5-5-5-5--|
-|----------------------------------------------------------------------------|


------------------------------------------------------------------------------|
------------------------------------------------------------------------------|
-7-5-----5-----5-----5-----5-----5-----5-----5--------------------------------|
-7-5-----5-----5-----5-----5-----5-----5-----5--7-----7-----7-----7-----7-----|
-5-3-3-3-3-3-3-3-3-3-3-3-3-3-3-3-3-3-3-3-3-3-3--7-----7-----7-----7-----7-----|
------------------------------------------------5-5-5-5-5-5-5-5-5-5-5-5-5-5---|


-------------------------------------------------------------------------|---|
-------------------------------------------------------------------------|---|
-------------------------------------------------------------------------|2x-|
-5-----5-----5-----5-----5-----5-----------------------------------------|---|
-5-----5-----5-----5-----5-----5-----------------------------------------|---|
-3-3-3-3-3-3-3-3-3-3-3-3-3-3-3-3-----------------------------------------|---|

 G:2 [Riff K]
-|-----------------------------------------------------------------------|---|
-|-----------7-------------------5-------------------3-------------7v--5v|---|
-|-7\9v--7-9---9-7-7h9-------5-7---7-5-5h7-------3-5---5-3-3v--5v--------|2x-|
-|---------------------7-7v----------------5-5v--------------------------|---|
-|-----------------------------------------------------------------------|---|
-|-----------------------------------------------------------------------|---|

 G.1 [Riff L]
-|-------------|--|--------------------------------|--|-----------------------|
-|-------------|--|--------------------------------|--|-----------------------|
-|----9-7-5----|4x|-------9-----7-----5------------|4x|-----------------------|
-|-5--------9-7|--|-5-----------------------9---7--|--|-----------------------|
-|-------------|--|--------------------------------|--|-----------------------|
-|-------------|--|---0-0---0-0---0-0---0-0---0---0|--|-----------------------|

 G.2 [Riff L]
-|--------------|--|----------------------------------|--|--------------------|
-|--------------|--|----------------------------------|--|--------------------|
-|--------------|4x|----------------------------------|4x|--------------------|
-|---10-9-7-----|--|-------10-----9-----7-------------|--|--------------------|
-|-7--------10-9|--|-7------------------------10---9--|--|--------------------|
-|--------------|--|---0-0----0-0---0-0---0-0----0---0|--|--------------------|

 Both Guitar [Riff M] Repeat to End....
---------------------------------------|--------------------------------------|
---------------------------------------|--------------------------------------|
---------------------------------------|--------------------------------------|
-2-------3-----2-----------------------|--------------------------------------|
-2-------3-----2-------5-5-5-5-5-5-5-5-|--------------------------------------|
-0---0-0-1-0-0-0---0-0-3-3-3-3-3-3-3-3-|--------------------------------------|
Comments