Asteroidica - Night Visitor Chords & Tabs

 

Night Visitor Chords & Tabs

Asteroidica Chords & Tabs

Version: 1 Type: Tab 0 ratings
1 star 2 stars 3 stars 4 stars 5 stars
comments

Night Visitor Tab

   
WWW:ASTEROIDICA.TK

Author/Artist: Asteroidica
Title: Night Visitor
Album: Grave Land of Heroes
Transcribed by: Jimmi Ohlsson
Email: asteroidfall@hotmail.com

One of the toughest songs this far! Very successful!
This is the studio version!


[Intro]
---------------------------------------------------------------|--|-----------|
---------------------------------------------------------------|--|-----------|
-----0-------0-------0---9---7---5-----5-----5---3-----3-------|5x|-----------|
---7---7---7---7---7---7---7---7---5-----5-----5---3---------3-|--|-----------|
-0-------0-------0-------------------0-----0---------0---2-4---|--|-----------|
---------------------------------------------------------------|--|-----------|
 Melody played liked this: 2nd - 4th time

-8v--------8-8-8-8-------6v-------8-8-8-8------|------------------------------|
------10v-----------10v-------8v-----------10v-|------------------------------|
-----------------------------------------------|------------------------------|
-----------------------------------------------|------------------------------|
-----------------------------------------------|------------------------------|
-----------------------------------------------|------------------------------|
 5th time:

-8v--------8-8-8-8-------6v------------|--------------------------------------|
------10v-----------10v-----8v--6vvvvv-|--------------------------------------|
---------------------------------------|--------------------------------------|
---------------------------------------|--------------------------------------|
---------------------------------------|--------------------------------------|
---------------------------------------|--------------------------------------|
 Then the picking goes like this:

---------------------------------------------0---------------|--|-------------|
---5-----5-----6-----5-----5-----3-----3-------0---3-----3---|--|-------------|
-----7-----7-----7-----7-----7-----4-----4-------4---4-----4-|4x|-------------|
-------7-----7-----7-----7-----------5-----5-----------5-----|--|-------------|
-0-----------------------------------------------------------|--|-------------|
-------------------------------3-----------------------------|--|-------------|
 Melody

-12vvvvv--------------------14b-14b-14b---------------------------------------|
--------------7-8-8/10vvv---------------------------12-13-13/15vvv------------|
----------7vv---------------------------14vv--12vv-------------------15vv-----|
------------------------------------------------------------------------------|
------------------------------------------------------------------------------|
------------------------------------------------------------------------------|


--------------------------------------------------------|---------------------|
-17h18p17-----19bv---15-15vvv---15h16p15v---------------|---------------------|
----------17-------------------------------15-15bvvvvvv-|---------------------|
--------------------------------------------------------|---------------------|
--------------------------------------------------------|---------------------|
--------------------------------------------------------|---------------------|
 On the record there is a 3rd guitar which scratch the strings.

 G:1 (Karlsson) [Riff A]
-|-------------------------------|--|-----------------------------------------|
-|-------------------------------|--|-----------------------------------------|
-|-----------------4-4-----------|4x|-----------------------------------------|
-|-----5-5-4-4-5-5-----5-5-4-4-5-|--|-----------------------------------------|
-|-7-7---------------------------|--|-----------------------------------------|
-|-------------------------------|--|-----------------------------------------|

 G:2 (Ohlsson) [Riff A]
-|----------------------------------------------------------------------------|
-|----------------------------------------------------------------------------|
-|----------------------------------------------------------------------------|
-|-9-9-9-9-9-9-9-9-9-9-9-9-9--5-5-5-5-5-5-5-5-5-5-5--9-9-9-9-9-9-9-9-9-9-9-9--|
-|-7-7-7-7-7-7-7-7-7-7-7-7-7--3-3-3-3-3-3-3-3-3-3-3--7-7-7-7-7-7-7-7-7-7-7-7--|
-|----------------------------------------------------------------------------|


--------------------------------------------------------------------|-|-|-|--|
--------------------------------------------------------------------|-|-|-|--|
--------------------------------------7-----------------------------|-|-|-|--|
---5-5-5-5-5-5-5--7-7-7-7-7-7-7-7-7-7-7-----------------------------|-|-|-|--|
---3-3-3-3-3-3-3--5-5-5-5-5-5-5-5-5-5-5-----------------------------|-|-|-|--|
--------------------------------------------------------------------|-|-|-|--|

 G:1  [Riff B]
-|----------------------------------------------------------------------------|
-|----------------------------------------------------------------------------|
-|-7-7-7-7-7-7-7-7-7-7-7-5-5-5-5-5-5-5-5-5-5-5-3-----3-----3-5-----5-----5----|
-|-7-7-7-7-7-7-7-7-7-7-7-5-5-5-5-5-5-5-5-5-5-5-3-----3-----3-5-----5-----5----|
-|-5-5-5-5-5-5-5-5-5-5-5-3-3-3-3-3-3-3-3-3-3-3-1-1-1-1-1-1-1-3-3-3-3-3-3-3-3--|
-|----------------------------------------------------------------------------|


-----------------------------------------------------------------|--|-|-|-|--|
-----------------------------------------------------------------|--|-|-|-|--|
----5----------3-------------------------------------------------|2x|-|-|-|--|
----5------3-5---------------------------------------------------|--|-|-|-|--|
--3-3--3-5-------------------------------------------------------|--|-|-|-|--|
-----------------------------------------------------------------|--|-|-|-|--|

 G:2  [Riff B]
-|------------------|--|-------------------------------------------|---|--|---|
-|-5/7v-5---5-------|--|-7/9v-7---7---------7/9v-7-----7-9--9/12vv-|---|--|---|
-|--------7---7-5---|2x|--------9---9-7------------9-7-------------|---|2x|---|
-|----------------7-|--|----------------9--------------------------|---|--|---|
-|------------------|--|-------------------------------------------|---|--|---|
-|------------------|--|-------------------------------------------|---|--|---|

 G:1 [Riff C] 2x
-|---------------------------------------------------------------------------|
-|---------------------------------------------------------------------------|
-|-7--------------------------------3--------------------5-------------------|
-|-7-7-7-7-7-7-7-7-7-7-7-7-7-7-7-7--3-3-3-3-3-3-3-3-3-3--5-5-5-5-5-5-5-5-5---|
-|-5-5-5-5-5-5-5-5-5-5-5-5-5-5-5-5--1-1-1-1-1-1-1-1-1-1--3-3-3-3-3-3-3-3-3---|
-|---------------------------------------------------------------------------|

 G:2  [Riff C]
-|------------------------------------------------------------------|--|------|
-|------------------------------------------------------------------|--|------|
-|-----7---9---10-7-----7---9---10-7-----7---9---10-5-----5-5h7-5-7-|2x|------|
-|-0-0---0---0------0-0---0---0------0-0---0---0------0-0-----------|--|------|
-|------------------------------------------------------------------|--|------|
-|------------------------------------------------------------------|--|------|

 G:1  [Riff D]
-|------------------------------------------------------------------|--|------|
-|-------------8----------------------------------------------------|--|------|
-|-9--7--5--7--7--9--5--7-------------------------------------------|2x|------|
-|-9--7--5--7--5--9--5--7-------------------------------------------|--|------|
-|-7--5--3--5-----7--3--5-------------------------------------------|--|------|
-|------------------------------------------------------------------|--|------|

 G:2  [Riff D]
-|------------------------|--|------------------------------------------------|
-|---------------7-5--9-7-|--|------------------------------------------------|
-|-7-7h9--5-5h7-----------|2x|------------------------------------------------|
-|------------------------|--|------------------------------------------------|
-|------------------------|--|------------------------------------------------|
-|------------------------|--|------------------------------------------------|

 G:1  [Riff E]
-|------------------------------------------------------------------|--|------|
-|------------------------------------------------------------------|--|------|
-|-9-9-9-9-9-9-9-9-9-9-9-9-5-5-5-5-5-5-5-5-5-5-4-4-4-4-4-7-7-7-7-7-7|4x|------|
-|-9-9-9-9-9-9-9-9-9-9-9-9-5-5-5-5-5-5-5-5-5-5-4-4-4-4-4-7-7-7-7-7-7|--|------|
-|-7-7-7-7-7-7-7-7-7-7-7-7-3-3-3-3-3-3-3-3-3-3-2-2-2-2-2-5-5-5-5-5-5|--|------|
-|------------------------------------------------------------------|--|------|

  G:2  [Riff E]         [1st,2nd and 3rd]                            [4th]
-|-----------------------------------------------------7-7-----|--|-----------|
-|-0-5-7-8-7-5-----0-5-7-8-7-5-----0-5-7-8-7-5-----5-7-----5-5-|--|-0-5-7-8-7-|
-|-------------5v--------------7v--------------5-7-------------|3x|-----------|
-|-------------------------------------------------------------|--|-----------|
-|-------------------------------------------------------------|--|-----------|
-|-------------------------------------------------------------|--|-----------|


---------------------------------------------------------------------------|--|
-5-----0-5-7-8-7-5-----0-5-7-8-7-5-----------------------------------------|--|
---5v--------------7v--------------7v-7/9-7--9--9b-9b-9b--7-7h9bv--9bvvvvv-|--|
---------------------------------------------------------------------------|--|
---------------------------------------------------------------------------|--|
---------------------------------------------------------------------------|--|

 G:1&2 [Riff F]
-|--------------------------------------|--|----------------------------------|
-|--------------------------------------|--|----------------------------------|
-|-7----------5--------------7--------5-|2x|----------------------------------|
-|-7----------5------5-------7--------5-|--|----------------------------------|
-|-5----------3------5-------5--------3-|--|----------------------------------|
-|-------------------3------------------|--|----------------------------------|

 G:3  [Riff F]
-|-5--5---5-5-3--3---3-3-3--3-3--5---5------5------5------5-----3---3---------|
-|-6--6---6-6-4--4---4-4-3--3-3--6-----6------6------6------6---4-----4-------|
-|-7--7---7-7-5--5---5-5-0--0-0--7--------7-------------7-----7-5-------------|
-|-7--7---7-7-5--5---5-5-0--0-0--7-7-------------7------------7-5-5-----------|
-|-5--5---5-5-3--3---3-3-2--2-2--5----------------------------5-3-------------|
-|-----------------------3--3-3-----------------------------------------------|


---3------3------3---|--------------------------------------------------------|
-----4------4------4-|--------------------------------------------------------|
-5-------------5-----|--------------------------------------------------------|
--------5------------|--------------------------------------------------------|
---------------------|--------------------------------------------------------|
---------------------|--------------------------------------------------------|

 G:1  Verse                                       Faster
-|--------------------------------------------|--|----------------------------|
-|--------------------------------------------|--|----------------------------|
-|----7-9-10-----7-9-10-----9-10-12----9-10-12|2x|----7-9-10----7-9-10----7-9-|
-|-10---------10---------12---------12--------|--|-10--------10--------10-----|
-|--------------------------------------------|--|----------------------------|
-|--------------------------------------------|--|----------------------------|


-----------------------------------------------------------------------------|
-----------------------------------------------------------------------------|
--10----7-9-10-----9-10-12----9-10-12----9-10-12----9-10-12------------------|
-----10---------12---------12---------12---------12--------------------------|
-----------------------------------------------------------------------------|
-----------------------------------------------------------------------------|

 G:2  Verse                                        2x
-|------------------------------------|--|------------------------------------|
-|------------------------------------|--|------------------------------------|
-|-7-----7--7-----7--5-----5--5-----5-|2x|------------------------------------|
-|-7-----7--7-----7--5-----5--5-----5-|--|-7-----------------------------5----|
-|-5-5-5-5--5-5-5-5--3-3-3-3--3-3-3-3-|--|-5-5-5-5-5-5-5-5-5-5-5-5-5-5-5-3-3--|
-|------------------------------------|--|------------------------------------|


-----------------------------------------------------------------------------|
-----------------------------------------------------------------------------|
---------------------------------------------------------------------------5-|
-----------------------7---------------------------5-----------------------5-|
-3-3-3-3-3-3-3-3-3-3-3-5-5-5-5-5-5-5-5-5-5-5-5-5-5-3-3-3-3-3-3-3-3-3-3-3-3-3-|
-----------------------------------------------------------------------------|

 G:1&2  [Riff G]
-|--------------------|--|----------------------------------------------------|
-|--------------------|--|----------------------------------------------------|
-|-2-----2-2-3-5-3-2v-|4x|----------------------------------------------------|
-|-2-----2------------|--|----------------------------------------------------|
-|-0-0-0-0------------|--|----------------------------------------------------|
-|--------------------|--|----------------------------------------------------|

 G:1  [Riff H]
-|----------------------------------------------------------------------------|
-|----------------------------------------------------------------------------|
-|-9-9-9-9-9-9-9-9-9-9-9-9-7-7-7-7-7-7-7-7-7-7--5-5-5-5-5-5-5-5-5--7-7-7-7-7--|
-|-9-9-9-9-9-9-9-9-9-9-9-9-7-7-7-7-7-7-7-7-7-7--5-5-5-5-5-5-5-5-5--7-7-7-7-7--|
-|-7-7-7-7-7-7-7-7-7-7-7-7-5-5-5-5-5-5-5-5-5-5--3-3-3-3-3-3-3-3-3--5-5-5-5-5--|
-|----------------------------------------------------------------------------|


------------|--|--------------------------------------------------------------|
------------|--|--------------------------------------------------------------|
-7-7-7-7-7-7|2x|--------------------------------------------------------------|
-7-7-7-7-7-7|--|--------------------------------------------------------------|
-5-5-5-5-5-5|--|--------------------------------------------------------------|
------------|--|--------------------------------------------------------------|

 G:2   [Riff H]
-|-------------------------------------------------------------------|--|-----|
-|-0-5-7-8-7-5-3-----0-5-7-8-7-5-3-3v--0-5-7-8-7-5-3-3-5-5/7-5-5h7---|--|-----|
-|---------------5v------------------------------------------------5v|2x|-----|
-|-------------------------------------------------------------------|--|-----|
-|-------------------------------------------------------------------|--|-----|
-|-------------------------------------------------------------------|--|-----|

 G:1&2  [Riff I]
-|-------------------------------------------------------------------|--|-----|
-|-------------------------------------------------------------------|--|-----|
-|---------------------------------------------9---------------------|2x|-----|
-|--------------------------------9-----10-------10-9-7--------------|--|-----|
-|-----9-----9------9-----9---7-7---7-7----7-7-----------------------|--|-----|
-|-7-7---7-7---7-7----7-7--------------------------------------------|--|-----|

 G:1 2x [Bridge #1]
-|---------------------------------------------------------------------------|
-|---------------------------------------------------------------------------|
-|---------------------------------------------------------------------------|
-|-9-9-9-9-9-9-9-9-9-9-9-9--5-5-5-5-5-5-5-5-5-5-5--4-4-4-4-4-4--7-7-7-7-7-7--|
-|-7-7-7-7-7-7-7-7-7-7-7-7--3-3-3-3-3-3-3-3-3-3-3--2-2-2-2-2-2--5-5-5-5-5-5--|
-|---------------------------------------------------------------------------|

 G:2  [Bridge]
-|---------------------------------------------------------|------------------|
-|-5/7v--5-------5v--5h7p5-----5/7v--5---------------------|------------------|
-|---------7-5-7-----------7v----------7-5-7-5v--5h7p5-----|------------------|
-|-----------------------------------------------------7v\-|------------------|
-|---------------------------------------------------------|------------------|
-|---------------------------------------------------------|------------------|

 G:1 [Chorus]
-|------------------------------------------------------|--|------------------|
-|------------------------------------------------------|--|------------------|
-|-9-----9-------------7--------5-----5-----4-----4\5/4-|4x|------------------|
-|-9-----9---------7-9---9-7-9--5-----5-----4-----4\5/4-|--|------------------|
-|-7-7-7-7-7-7-7-9--------------3-3-3-3-3-3-2-0-0-2\3/2-|--|------------------|
-|------------------------------------------------------|--|------------------|

 G:2 [Chorus]
-|----------------------------------------------------|--|--------------------|
-|----------------------------------------------------|--|--------------------|
-|-9-----9-9-9-9-----9-9-9-9--5-----5-5-5-4-----5-----|2x|--------------------|
-|-9-----9-9-9-9-----9-9-9-9--5-----5-5-5-4-----5-----|--|--------------------|
-|-7-7-7-7-7-7-7-7-7-7-7-7-7--3-3-3-3-3-3-2-2-2-3-3-3-|--|--------------------|
-|----------------------------------------------------|--|--------------------|
[ Tab from: http://www.guitartabs.cc/tabs/a/asteroidica/night_visitor_tab.html ]
 G:2 3rd & 4th time:
----------------------------------------------------------|--|----------------|
----------------------------------------------------------|--|----------------|
-9-----9-------9-----9--------5-----5-------4-------------|2x|----------------|
-9-7-9---9-7-9-9-7-9---9-7-9--5-3-5---5-3-5-4-----2h4-4-4-|--|----------------|
-7-------------7--------------3-------------2-2-2---------|--|----------------|
----------------------------------------------------------|--|----------------|

 G:1  [Riff J]
-|----------------------------------------------------------------------------|
-|----------------------------------------------------------------------------|
-|-9-----9-----9-----9--7-----7-----7-----7--5-----5-----5-----5--7-----7-----|
-|-9-----9-----9-----9--7-----7-----7-----7--5-----5-----5-----5--7-----7-----|
-|-7-7-7-7-7-7-7-7-7-7--5-5-5-5-5-5-5-5-5-5--3-3-3-3-3-3-3-3-3-3--5-5-5-5-5---|
-|----------------------------------------------------------------------------|


-----------------|------------------------------------------------------------|
-----------------|------------------------------------------------------------|
---7-----7-----7-|------------------------------------------------------------|
---7-----7-----7-|------------------------------------------------------------|
-5-5-5-5-5-5-5-5-|------------------------------------------------------------|
-----------------|------------------------------------------------------------|

 G:2  [Riff J]
-|-----------------------------------|--|-------------------------------------|
-|-5/7v--7h8-----5/7--8-8/10-8-------|--|-------------------------------------|
-|-----------7v----------------11-9v-|2x|-------------------------------------|
-|-----------------------------------|--|-------------------------------------|
-|-----------------------------------|--|-------------------------------------|
-|-----------------------------------|--|-------------------------------------|

 G:1 Solo
-|-----------------------------------10---------------------------------------|
-|---10-10\12-13-12---10-10\12-13-12----13-10-12-13-12-10-12-13-12---10-12----|
-|-9v---------------9----------------------------------------------9----------|
-|----------------------------------------------------------------------------|
-|----------------------------------------------------------------------------|
-|----------------------------------------------------------------------------|


---------------------10-------------------------------------------------------|
-13-12---10-12-13-12----13-10-12-13-12-10-12-13-17--20p19p17-20p19p17---------|
-------9----------------------------------------------------------------------|
------------------------------------------------------------------------------|
------------------------------------------------------------------------------|
------------------------------------------------------------------------------|


------------------------------------------------------------------------------|
-20p19p17-20p19p17-20p19p17-20p19p17-20p19p17-20p19p17-19p17p15-19p17p15------|
------------------------------------------------------------------------------|
------------------------------------------------------------------------------|
------------------------------------------------------------------------------|
------------------------------------------------------------------------------|


------------------------------------------------------------------------------|
-19p17p15-19p17p15-19p17p15-19p17p15-19p17p15-19p17p15-17p15p13-17p15p13------|
------------------------------------------------------------------------------|
------------------------------------------------------------------------------|
------------------------------------------------------------------------------|
------------------------------------------------------------------------------|


------------------------------------------------------------------------------|
-17p15p13-17p15p13-17p15p13-17p15p13-17p15p13-17p15p13-19p17p15-19p17p15------|
------------------------------------------------------------------------------|
------------------------------------------------------------------------------|
------------------------------------------------------------------------------|
------------------------------------------------------------------------------|


------------------------------------------------------------------------------|
-19p17p15-19p17p15-19p17p15-19p17p15-19p17p15-19p17p15-12-12-13p12-12-15p12---|
------------------------------------------------------------------------------|
------------------------------------------------------------------------------|
------------------------------------------------------------------------------|
------------------------------------------------------------------------------|


------------------------------------------------------------------------------|
-12-17p12-12-15p12-12-13p12-12-15p12-12-17p12-12-15p12-12-13p12-12-15p12-12---|
------------------------------------------------------------------------------|
------------------------------------------------------------------------------|
------------------------------------------------------------------------------|
------------------------------------------------------------------------------|


------------------------------------------------------------------------------|
-17p12-12-15p12-12-13p12-12-15p12-12-17-15-13-12------------------------------|
-------------------------------------------------7-5-4---5-4-----4------------|
-------------------------------------------------------7-----7-5---7-5-4-7-5--|
------------------------------------------------------------------------------|
------------------------------------------------------------------------------|


---------------------------------------10-8-7----8-7------7-------------------|
----------------------------------------------10-----10-8---10-8-7-10-8-7-----|
------7-5-4---5-4-----4---------------------------------------------------9---|
-4----------7-----7-5---7-5-4-7-5-4-------------------------------------------|
---7--------------------------------7-----------------------------------------|
------------------------------------------------------------------------------|


--10-8-7----8-7------|--------------------------------------------------------|
---------10-----10-8-|--------------------------------------------------------|
---------------------|--------------------------------------------------------|
---------------------|--------------------------------------------------------|
---------------------|--------------------------------------------------------|
---------------------|--------------------------------------------------------|

 G:2 Solo Comp
-------------------------------|--|-------------------------------------------|
-------------------------------|--|-------------------------------------------|
-9--------7--------5---------7-|2x|-------------------------------------------|
-9--------7--------5---------7-|--|-------------------------------------------|
-7--------5--------3---------5-|--|-------------------------------------------|
-------------------------------|--|-------------------------------------------|

 G:2 Comp to faster solo part
------------------------------------------------------------------------------|
------------------------------------------------------------------------------|
-9-----------------------------7-----------------------------5-----5-----5----|
-9-------9-----9-----9-----9---7-------7-----7-----7-----7--------------------|
-7-7-7-7---7-7---7-7---7-7---7-5-5-5-5---5-5---5-5---5-5---5---3-3---3-3---3--|
------------------------------------------------------------------------------|


-------------------------------------------------|--|-------------------------|
-------------------------------------------------|--|-------------------------|
-5-----5-----5---7-----7-----7---7-----7-----7---|2x|-------------------------|
-------------------------------------------------|--|-------------------------|
---3-3---3-3---3---5-5---5-5---5---5-5---5-5---5-|--|-------------------------|
-------------------------------------------------|--|-------------------------|

G:2 last part of the solo comp
------------------------------------------------------------------------------|
------------------------------------------------------------------------------|
-9-----------------------------7-----7-----7---7-----7-----7---5-----5-----5--|
-9-------9-----9-----9-----9--------------------------------------------------|
-7-7-7-7---7-7---7-7---7-7---7---5-5---5-5---5---5-5---5-5---5---3-3---3-3----|
------------------------------------------------------------------------------|


---------------------------------------------------|--------------------------|
---------------------------------------------------|--------------------------|
---5-----5-----5---7-----7-----7---7-----7-----7---|--------------------------|
---------------------------------------------------|--------------------------|
-3---3-3---3-3---3---5-5---5-5---5---5-5---5-5---5-|--------------------------|
---------------------------------------------------|--------------------------|

 G:1 [Riff K]
-|----------------------------------------------------------------------------|
-|---------7-7------------7-7------------5-5-----------5-5------------3-3-----|
-|-----9-9-----9------9-9-----9------7-7-----7-----7-7-----7------5-5------5--|
-|-9-9------------9-9------------7-7-----------7-7------------5-5-------------|
-|----------------------------------------------------------------------------|
-|----------------------------------------------------------------------------|


---------------------------------------------------|--|-----------------------|
---------3-3------------5-5------------5-5---------|--|-----------------------|
-----5-5-----5------7-7-----7------7-7-----7-------|2x|-----------------------|
-5-5------------7-7------------7-7-----------7-----|--|-----------------------|
---------------------------------------------------|--|-----------------------|
---------------------------------------------------|--|-----------------------|

 G:2  [Riff K]
-|-------------------------------------------------|--|-----------------------|
-|-------------------------------------------------|--|-----------------------|
-|-------------------------------------------------|2x|-----------------------|
-|-9--9-9-9-----7--7-7-7-----5--5-5-5-----7--7-7-7-|--|-----------------------|
-|-7--7-7-7-----5--5-5-5-----3--3-3-3-----5--5-5-5-|--|-----------------------|
-|-------------------------------------------------|--|-----------------------|

 G:1  [Riff L]
-|----------------------------------------------------------------------------|
-|----------------------------------------------------------------------------|
-|-7-----7-----7p6p5p0---------------------------5-----5-----5p4p3p0----------|
-|-7-----7-------------7p6p5p0---------7p6p5p0---5-----5-------------5p4p3p0--|
-|-5-5-5-5-5-5-----------------7p6p5p0-----------3-3-3-3-3-3------------------|
-|----------------------------------------------------------------------------|


---------------------------------------------------|--|-----------------------|
---------------------------------------------------|--|-----------------------|
---------------------------------------------------|2x|-----------------------|
---------5p4p3p0-----------------------------------|--|-----------------------|
-5p4p3p0-------------------------------------------|--|-----------------------|
---------------------------------------------------|--|-----------------------|

 G:2  [Riff L]
-|---------------------------------------------------------------------|--|---|
-|---------------------------------------------------------------------|--|---|
-|-7---------------7---------------5-----------------5-----------------|2x|---|
-|-7---------------7---------------5-----------------5-----------------|--|---|
-|-5h4p5-5-5-5-5-5-5h4p5-5-5-5-5-5-3h4p3-3-3-3-3-3-3-3h4p3-3-3-3-3-3-3-|--|---|
-|---------------------------------------------------------------------|--|---|

 G:1  [Riff M]
-|---------------------------------------------------------------------|--|---|
-|---------------------------------------------------------------------|--|---|
-|---------------------------------------------------------------------|2x|---|
-|-7-7-7-7-7-7-7-7----------5--5-5-5-5-5-5-5-5----------3--------------|--|---|
-|-7-7-7-7-7-7-7-7------5-7----5-5-5-5-5-5-5-5------3-5----------------|--|---|
-|-5-5-5-5-5-5-5-5--5-7--------3-3-3-3-3-3-3-3--3-5--------------------|--|---|

 G:2    [Riff M]
-|----------------------------------------------------------------------------|
-|----------------------------------------------------------------------------|
-|-------------7---------------------5---------------------7------------------|
-|-7-----------7-------7-5-----------5-------5-7-----------7-------7-5--------|
-|-7-----------5-5-----7-5-----------3-3-----5-7-----------5-5-----7-5--------|
-|-5-5-5-5-5-5-5-5-5-5-5-3-3-3-3-3-3-3-3-3-3-3-5-5-5-5-5-5-5-5-5-5-5-3-3-3-3--|


---------------|--------------------------------------------------------------|
---------------|--------------------------------------------------------------|
-----5---------|--------------------------------------------------------------|
-----5-5--5--5-|--------------------------------------------------------------|
-----3-5--5--5-|--------------------------------------------------------------|
-3-3-3-3--3--3-|--------------------------------------------------------------|

 [Riff G #2] G:1
-|-------------------------------------|--------------------------------------|
-|-------------------------------------|--------------------------------------|
-|-2-----2-2-3-5-3-2-2-----2-2-3-5-3-2-|--------------------------------------|
-|-2-----2-----------2-----2-----------|--------------------------------------|
-|-0-0-0-0-----------0-0-0-0-----------|--------------------------------------|
-|-------------------------------------|--------------------------------------|

 [Riff G #2] G:2
-|----------------------------------------------|-----------------------------|
-|----------------------------------------------|-----------------------------|
-|-2-----2-2-3-5-3-2-2-----2-2-3-5-3-2--5-3-2-0-|-----------------------------|
-|-2-----2-----------2-----2--------------------|-----------------------------|
-|-0-0-0-0-----------0-0-0-0--------------------|-----------------------------|
-|----------------------------------------------|-----------------------------|

 [Riff H #2] G:1                            [Riff H #3] G:1
 G:2 Plays [Riff H Melody]
-|--------------------------------------|-------------------------------------|
-|--------------------------------------|-------------------------------------|
-|-9------9--7--------7--5-----5---7----|--9-----9-----9-----9-----9--7-----7-|
-|-9------9--7--------7--5-----5---7----|--9-----9-----9-----9-----9--7-----7-|
-|-7------7--5--------5--3-----3---5----|--7-7-7-7-7-7-7-7-7-7-7-7-7--5-5-5-5-|
-|--------------------------------------|-------------------------------------|


-----------------------------------------------------------------------------|
-----------------------------------------------------------------------------|
-----7-----7-----7--5-----5-----5-----5-----5--7-----7-----7-----7-----7-----|
-----7-----7-----7--5-----5-----5-----5-----5--7-----7-----7-----7-----7-----|
-5-5-5-5-5-5-5-5-5--3-3-3-3-3-3-3-3-3-3-3-3-3--5-5-5-5-5-5-5-5-5-5-5-5-5-----|
-----------------------------------------------------------------------------|

 [Outro] G:1
-|----------------------------------------------------------------------------|
-|----------------------------------------------------------------------------|
-|--------------7----------5--------7-----------------------------------------|
-|-2------------7----------5--------7-----------------------------------------|
-|-2------------5----------3--------5-----------------------------------------|
-|-0--------------------------------------------------------------------------|


------------------------------------------------------------------------------|
------------------------------------------------------------------------------|
-----------------------------7-----7-----7-----7-----7--5-----5-----5-----5---|
--2-----2-----2-----2-----2--7-----7-----7-----7-----7--5-----5-----5-----5---|
--2-----2-----2-----2-----2--5-5-5-5-5-5-5-5-5-5-5-5-5--3-3-3-3-3-3-3-3-3-3---|
--0-0-0-0-0-0-0-0-0-0-0-0-0---------------------------------------------------|


-----------------------------------------------------------------------------|
-----------------------------------------------------------------------------|
-----5--7-----7-----7-----7-----7--------------------------------------------|
-----5--7-----7-----7-----7-----7--------------------------------------------|
-3-3-3--5-5-5-5-5-5-5-5-5-5-5-5-5--------------------------------------------|
-----------------------------------------------------------------------------|

 [Outro] G:2                               Repeat to End
-|----------------------------------|--|-\14v--14h15-----\14v-15-17-15-------|
-|-5/7--7h8-----5/7--8-8/10-8-------|--|-------------15v---------------19-17-|
-|----------7v----------------11-9v-|2x|-------------------------------------|
-|----------------------------------|--|-------------------------------------|
-|----------------------------------|--|-------------------------------------|
-|----------------------------------|--|-------------------------------------|

Build:
[Intro]
[Riff A]
[Riff B]
[Riff C]
[Riff D]
[Riff E]
[Riff F] Vocals Start
[Verse]
[Riff G]
[Riff H]
[Riff I]
[Bridge]
[Chorus]
[Riff J]
[Solo + Comp]
[Riff K]
[Riff L]
[Riff M]
[Verse]
[Riff G]
[Verse]
[Riff G #2]
[Riff H #2]
[Chorus]
[Outro]

Good Luck!!!!
Comments