Asteroidica - Angel Of My Life Chords & Tabs

 

Angel Of My Life Chords & Tabs

Asteroidica Chords & Tabs

Version: 1 Type: Tab 0 ratings
1 star 2 stars 3 stars 4 stars 5 stars
comments

Angel Of My Life Tab

   
WWW.ASTEROIDICA.TK

Author/Artist: Asteroidica
Title: Angel of My Life
Demo: Graveland of Heroes
Transcribed by: Jimmi Ohlsson
Email: asteroidfall@hotmail.com

the easiest song yet, no doubt! But one of the most liked!

-3--3------3--3-------3--3---------------3-------|--|------------------------|
-3----3----3----3-----3----3-----------3---3-----|--|------------------------|
-0------0--0------0---0------0-------0-------0---|2x|------------------------|
-0---------0----------2--------2---2-----------0-|--|------------------------|
-2---------2----------3----------3---------------|--|------------------------|
-3---------3--------0----------------------------|--|------------------------|
 Bass comes in... G:1 plays:
-3-----3-------3-----3-------3-----3---------------3-------|--|--------------|
-3---3---3-----3---3---3-----3---3---3-----------3---3-----|--|--------------|
-0-0-------0---0-0-------0---0-0-------0-------0-------0---|2x|--------------|
-0-------------0-------------2-----------2---2-----------0-|--|--------------|
-2-----------0-2-----------0-3-------------3---------------|--|--------------|
-3-------------3-------------------------------------------|--|--------------|
 G:1 Plays alone with bass: Am - C - G 2X Then drums comes in and G:3 plays:
-----------------------------------------------------------------------------|
-/7v--5-7v--5-7-7/8v--7-5----------5---5v--------5v--5h7-5-------------------|
--------------------------7v---5-7---7-------5-7-----------7v--5-7-5--5h7-5--|
-----------------------------------------------------------------------------|
-----------------------------------------------------------------------------|
-----------------------------------------------------------------------------|

------------------------------------------10-9-10-------10-9-10--------------|
--------------7/8-7-5-7-5--7/8-7-5-7-7v------------7-7v----------7--7v--5-7--|
----------5-7----------------------------------------------------------------|
-7v---5-7--------------------------------------------------------------------|
-----------------------------------------------------------------------------|
-----------------------------------------------------------------------------|


----------------------------------------------|------------------------------|
-7/8v-7-5------5-7-7/8--7-5-------------------|------------------------------|
----------7-5---------------7-5--5h7p5--------|------------------------------|
---------------------------------------7-5-7v-|------------------------------|
----------------------------------------------|------------------------------|
----------------------------------------------|------------------------------|
 G:1 start to pick the chords [A - C - G] and G:3 plays:
-----------------------------------------------------------------|-----------|
-----------------------------------------------------------------|-----------|
---4-5v--5-4------7--4----------4-5v--5b-4-----4h5-4-------------|-----------|
-5-----------5v---------7v----5------------5v--------5-4-5v---5\-|-----------|
-----------------------------------------------------------------|-----------|
-----------------------------------------------------------------|-----------|
 Verse Begins![A - C - G] is played by G:1, G:2 plays like this! Riff:1

-----------------------|--|--------------------------------------------------|
-----------------------|--|--------------------------------------------------|
------------5----------|4x|--------------------------------------------------|
-7----------5---5------|--|--------------------------------------------------|
-7----------3---5--5-5-|--|--------------------------------------------------|
-5---0h5-5------3--3-3-|--|--------------------------------------------------|
 Then G:1 start picking the chords like before. G:2 plays:

--------------------------------------------------|--|-----------------------|
--------------------------------------------------|--|-----------------------|
-0-4-5v--5-4------5-4--------0-4-5v--5-4------5-4-|2x|-----------------------|
-------------5v--------7v----------------5v-------|--|-----------------------|
--------------------------------------------------|--|-----------------------|
--------------------------------------------------|--|-----------------------|
 Then G:1&2 play the Acoustic/Electric in Riff:1 4X, then G:1 picks Brigde

-2----3--3-|--|--------------------------------------------------------------|
-3----3--3-|--|--------------------------------------------------------------|
-2----0--0-|2x|--------------------------------------------------------------|
-0----2--0-|--|--------------------------------------------------------------|
------3--2-|--|--------------------------------------------------------------|
---------3-|--|--------------------------------------------------------------|
 The melody from G:2 is played like this: [Bridge]

-----------------------------------------------------------------------------|
------6-6/8v--6-8--8/10--8-7v--7-8-8/10v---8-10-10/12--12-13v--13/15--13-12--|
-/7v-------------------------------------------------------------------------|
-----------------------------------------------------------------------------|
-----------------------------------------------------------------------------|
-----------------------------------------------------------------------------|

[ Tab from: http://www.guitartabs.cc/tabs/a/asteroidica/angel_of_my_life_tab.html ]
---------|-------------------------------------------------------------------|
-11-9-7v-|-------------------------------------------------------------------|
---------|-------------------------------------------------------------------|
---------|-------------------------------------------------------------------|
---------|-------------------------------------------------------------------|
---------|-------------------------------------------------------------------|
 In the chours G:2&3 plays the guitars! Chours:

---------------------------------------------------------------|-------------|
---------------------------------------------------------------|-------------|
-7-----3---5---7---9-----------7------3---5------------------5-|-------------|
-7-----3---5---7---9--9----7---7------3---5---5--7-------5-7---|-------------|
-5-----1---3---5---7--9----7---5------1---3---5--7---5-7-------|-------------|
----------------------7--0-5------------------3--5-------------|-------------|
 Play the verse 2x and then it's time for a solo! G:1 Back Riff:

-2----3--3-|--|--------------------------------------------------------------|
-3----0--3-|--|--------------------------------------------------------------|
-2----0--0-|4x|--------------------------------------------------------------|
-0----2--0-|--|--------------------------------------------------------------|
------3--2-|--|--------------------------------------------------------------|
---------3-|--|--------------------------------------------------------------|
 G:3 Back Riff:

-----------|--|--------------------------------------------------------------|
-----------|--|--------------------------------------------------------------|
-7----5----|4x|--------------------------------------------------------------|
-7----5--5-|--|--------------------------------------------------------------|
-5----3--5-|--|--------------------------------------------------------------|
---------3-|--|--------------------------------------------------------------|
 G:2 Solo: Solo Missing Right Now

-----------------------------------------------------------------------------|
-----------------------------------------------------------------------------|
-----------------------------------------------------------------------------|
-----------------------------------------------------------------------------|
-----------------------------------------------------------------------------|
-----------------------------------------------------------------------------|


-----------------------------------------------------------------------------|
-----------------------------------------------------------------------------|
-----------------------------------------------------------------------------|
-----------------------------------------------------------------------------|
-----------------------------------------------------------------------------|
-----------------------------------------------------------------------------|


-----------------------------------------------------------------------------|
-----------------------------------------------------------------------------|
-----------------------------------------------------------------------------|
-----------------------------------------------------------------------------|
-----------------------------------------------------------------------------|
-----------------------------------------------------------------------------|


------------------------------------------------------------------------------|
------------------------------------------------------------------------------|
------------------------------------------------------------------------------|
------------------------------------------------------------------------------|
------------------------------------------------------------------------------|
------------------------------------------------------------------------------|
 Then play the A-C-G riff another 2x, then G:1 picks [A-C-G] G:2--------------| plays:

-------------------------------------------------|--|------------------------|
-------------------------------------------------|--|------------------------|
-0-4-5v--5-4------5-4-------0-4-5v--5-4------5-4-|2x|------------------------|
-------------5v-------7v----------------5v-------|--|------------------------|
-------------------------------------------------|--|------------------------|
-------------------------------------------------|--|------------------------|
 Then play from the beginning of the verse, all the way to chours! Outro G:2:

-----------------------------------------------|----------|--|----------|--|--|
-----------------------------------------------|----------|--|----------|--|--|
-0-4-5v--5-4------5-4-------0-4-5v-5-4------5-4|-7----5---|2x|----5-----|2x|--|
-------------5v-------7v---------------5v------|-7----5--5|--|-7--5----5|--|--|
-----------------------------------------------|-5----3--5|--|-7--3----5|--|--|
-----------------------------------------------|---------3|--|-5-------3|--|--|
 G:1--------------------------------------------------------------------------| 
Picks: A-C-G 2x, [Bridge], A-C-G 2x Then Half Bridge! Ending:[Slower]

-------2-------3-----2------------3--------3------3-|------------------------|
-----3---3-------3-----3------------3--------3----3-|------------------------|
---2-------2-------2-----2------0--------0--------0-|------------------------|
-0-----------0--------------0-3-------------------0-|------------------------|
---------------------------------------3----------2-|------------------------|
--------------------------------------------------3-|------------------------|
Comments