Assorted Jelly Beans - 8th Grade Nerd Chords & Tabs

 

8th Grade Nerd Chords & Tabs

Assorted Jelly Beans Chords & Tabs

Version: 1 Type: Bass Tab 0 ratings
1 star 2 stars 3 stars 4 stars 5 stars
comments

8th Grade Nerd Bass Tab

Song: 8th grade nerd
Band: Assorted jelly beans
Album: Assorted Jelly Beans
tabbed by: Pezman0014

awesome song if there are any problems email me.. Pezman0014@aol.com.
listen
to the cd to see where everything goes

SKA PART:

G:----------------------------------------------------------------------------
------6-9-6/-------------

D:----------------------------------------------------------------------------
----7--------/----------------
[ Tab from: http://www.guitartabs.cc/tabs/a/assorted_jelly_beans/8th_grade_nerd_btab.html ]
A:--7-10-7---4-7-4---7-10-7---4-7-4---7-10-7---4-7-4---7-10-7------------/----
------------

E:8-----------5--------8----------5---------8----------5---------8------------
---------/----------------

PUNK PART:
G:------------------------------------/--------------------------
D:------------------------------------/--------------------------
A:------------------------------------/--------------------------

E:8-8--5-5--8-8--6-6-6--5-5-5/-----------------------------------------------



Comments