Asphyx - The Quest Of Absurdity Chords & Tabs

 

The Quest Of Absurdity Chords & Tabs

Asphyx Chords & Tabs

Version: 1 Type: Tab 0 ratings
1 star 2 stars 3 stars 4 stars 5 stars
comments

The Quest Of Absurdity Tab

                         
                          ASPHYX-THE QUEST OF ABSURDITY
                          From the Album THE RACK
                          Copyright ??? Century Media Records
                                                   
                          Version 1.0 - March 1999



Transcribed by: Vincent Levant
 email Vincent Levant at vlevant@nordnet.fr, for questions or corrections

Visit Malignant Tablature Dominion at 
      http://www.angelfire.com/ak2/MalignantTabs/index.html

Check Out 's Web Page, With More Transcriptions On It:
               /

Check Out DEATH WARP, With More Transcriptions On It:
               http://tiger.towson.edu/~dalvis1



/     slide up
\     slide down
p     pull on
h     hammer on
~     vibrato
.     pm



Tuning: 1 whole step down

riff 1:
|-----------------------------------------------------------------|
|-----------------------------------------------------------------|
|-----------------------------------------------------------------|
|-----------------------------------------------------------------|
|-------------------------7\6\5/7-------------------------5/6/7\5-|
|-00000-0-00000-0-00000-0-5\4\3/5-00000-0-00000-0-00000-0-3/4/5\3-|
 pm---------------------+        pm---------------------+

riff 2:
|-------------------------------------|
|-------------------------------------|
|-------------------------------------|
|-------------------------------------|
|-2--------4-4--3---------5\4p0-5\4p0-|
|-0--------2-2--1-------0-3\2p0-3\2p0-|
                       pm

riff 3:
|-----------------------------------------------------------|
|-----------------------------------------------------------|
|-----------------------------7-----------------------------|
|-----7p5h7-----8p7h8-----7-5---5-7p5h7---------------------|
|----------------------------------------8---7---6/7\6--8-8-|
|-0-0-------0-0-------0-0----------------6---5---4/5\4--6-6-|
 pm-+      pm-+      pm-+
[ Tab from: http://www.guitartabs.cc/tabs/a/asphyx/the_quest_of_absurdity_tab.html ]
fill 1:                  fill 2:
|--------------------|   |---------------------|
|--------------------|   |---------------------|
|--------------------|   |---------------------|
|--------------------|   |-----7p5h7-----8p7h8-|
|-8---7---6/7\6--8-8-|   |---------------------|
|-6---5---4/5\4--6-6-|   |-0-0-------0-0-------|
                          pm-+      pm-+ 
riff 4:
|-------------------------------|
|-------------------------------|
|-------------------------------|
|-5------5------5-------8-7-8-7-|
|-333333333333333333333-6-5-6-5-|
|-------------------------------|
  pm----+pm----+pm----+

fill 3:            riff 5:               riff 6:
|------------|     |----------------|    |----------------|
|------------|     |----------------|    |----------------|
|------------|     |----------------|    |----------------|
|------------|     |----------------|    |----------------|
|-8--7--5--7-|     |-2--5--8--7/8\7-|    |-2--4--5--4/5\4-|
|-6--5--3--5-|     |-0--3--6--5/6\5-|    |-0--2--3--2/3\2-|

riff 7:sorry! i think that the bass do something and the guitard just e trem.
|------------------------------------------------|
|------------------------------------------------|
|------------------------------------------------| 
|------------------------------------------------|
|-?------------?h?------------?h?------------?h?-|
|--000000000000---000000000000---000000000000----|
  pm----------+  pm----------+  pm----------+

riff 8: very not sure about that!!
|---------------------------------------------------------|
|---------------------------------------------------------|
|---------------------------------------------------------|
|---------------------------------------------------------|
|-5--------------3--------------5--------------9-8-9-10-9-|
|-3-000000000000-1-000000000000-3-000000000000-7-6-7-8--7-|
   pm----------+  pm----------+  pm----------+


order:
riff 1 x4
riff 2 x4
riff 1 x2
riff 3 x2
riff 4 x4
fill 1
riff 4 x4
riff 3 x2
fill 2
fill 3
riff 5 x4
riff 6 x2
riff 5 x2
riff 7 x4
riff 8 x4
riff 7 x4
riff 5 x2 stop with a C
blanc part
riff 1 x2
riff 2 x2 with a C in the end.


This tab is not permitted or any others off my page to by posted anywhere without
asking me in head of time. For all the time it takes me to do some of these tabs 
please ask me first, I would appreciate it, Zack Demianczyk (dio@nauticom.net)
Comments