Asking Alexandria - The Final Episode Lets Change The Channel Chords & Tabs

 

Asking Alexandria Chords & Tabs

Version: 1 Type: Tab 0 ratings
1 star 2 stars 3 stars 4 stars 5 stars
comments

The Final Episode Lets Change The Channel Tab

	
well ... first, sorry for my English, because I am Brazilian, and use translators: D
-- 
OK, this is my first tab, then any error let me know, and a discount because it is MY FIRST!

so, enjoy






// --------------- intro ----------------- \\

|-------------------------------------------------------||
|-------------------------------------------------------||
|-------------------------------------------------------||
|------------------------------------------3--2--5-3-2/3||
|0000000000000000- time - 0000000000000000--------------||
|0000000000000000- time - 0000000000000000--00-00-0-0---||
 ................         ................  .. .. . .

|-------------------------------------|--------------------------------|
|-------------------------------------|--------------------------------|
|-------------------------------------|--------------------------------|
|--------------------- 7--5--3--3-5-3~|--------------------5--3--2-3-2~|
|-888888888888888888 - ---------------|-55555555555555555 -------------|
|-888888888888888888 -  00-00-00-0-0--|-55555555555555555 --00-00-0-0--|
  ..................    .. .. .. . .    .................   .. .. . .
                           repeat all 2x
\\----------------------------------------------------------------------//
\\---------------------------- verse 1 ---------------------------------//

|----------------------------------------------------------|
|----------------------------------------------------------|
|----------------------------------------------------------| - 4x
|-3--2--5-3-2/3--3--2--5-3-2/3-7--5--7-5-3~5--5--3--5-3-2~3|
|----------------------------------------------------------|
|--00-00-0-0----0-00-00-0-0-----00-00-0-0------00-00-0-0---|
   .. .. . .    . .. .. . .     .. .. . .      .. .. . .

\\-------------------------pre-chorus---------------------------------//

|--------------------13~--------------------------------||
|--------------------13~--------------------------------||
|-------------------------------------------------------||
|------------------------------------------3--2--5-3-2/3||
|0000000000000000- 0--- - 0000000000000000--------------||
|0000000000000000- 0--- - 0000000000000000--00-00-0-0---||
 ................         ................  .. .. . .


|-------------------------------------|--------------------------------|
|-------------------------------------|--------------------------------|
|-------------------------------------|--------------------------------|
|--------------------- 7--5--3--3-5-3~|--------------------5--3--2-3-2~|
|-888888888888888888 - ---------------|-55555555555555555 -------------|
|-888888888888888888 -  00-00-00-0-0--|-55555555555555555 --00-00-0-0--|
  ..................    .. .. .. . .    .................   .. .. . .

                              repeat all 2x
\\----------------------------------------------------------------------//

\\----------------------------- chorus --------------------------------//
[ Tab from: http://www.guitartabs.cc/tabs/a/asking_alexandria/the_final_episode_lets_change_the_channel_tab.html ]
|-------------------------------------|
|-------------------------------------|
|-------------------------------------|
|-0-0000-0000-8-8888-8888-5-5555-5555-|             
|-0-0000-0000-8-8888-8888-5-5555-5555-|
|-0-0000-0000-8-8888-8888-5-5555-5555-|
                                                          [repeat 2x]
|------------------------------------------|
|------------------------------------------|
|------------------------------------------|
|-----2-2/3---3-3/5---5-5/7-5-7-5-7-3-5-3-2|
|-000------000-----000---------------------|
|-000------000-----000---------------------|
  ...      ...     ...

END CHORUS -

|------------------|
|------------------|
|------------------|
|-----2-2/3---3-3/5|
|-000------000-----|
|-000------000-----|
  ...      ...     



\\-------------------- verso 2 --------------------------------//

|---------------------------------------|
|---------------------------------------|
|---------------------------------------|
|---------------------------------------|   [4x]
|-000-000-000-000-00000-00-----00-000-00|
|-000-000-000-000-00000-00-----00-000-00|
  ... ... ... ... ..... ..     .. ... ..

|---------------------------------|
|---------------------------------|
|---------------------------------|
|---------------------------------|          [4x]
|-00-00-00-00-----------------0000|
|-00-00-00-00-----------------0000|


\\----------------------------- chorus 2 --------------------------------//

|-------------------------------------|
|-------------------------------------|
|-------------------------------------|
|-0-0000-0000-8-8888-8888-5-5555-5555-|             
|-0-0000-0000-8-8888-8888-5-5555-5555-|
|-0-0000-0000-8-8888-8888-5-5555-5555-|
                                                          [repeat 2x]
|------------------------------------------|
|------------------------------------------|
|------------------------------------------|
|-----2-2/3---3-3/5---5-5/7-5-7-5-7-3-5-3-2|
|-000------000-----000---------------------|
|-000------000-----000---------------------|
  ...      ...     ...

END CHORUS
|-9999|
|-7777|
|-----|
|-----|
|-----|
|-----|


\----------------------------VERSO 3 ------------------------/

|----------------------5--------|
|---------------------6-6-5-----|
|------------------5-8-----6-5--|    [4X]
|-------------------------------|
|-00000-00000-00000-------------|
|-00000-00000-00000-------------|
  ..... ..... .....

-------------------------- TECHNO PART/END----------------------

|--------------------------|
|--------------------------|
|--------------------------|    [4X]
|--------------------------|
|000-000-0-0-0--------0-0-0|
|000-000-0-0-0--------0-0-0|
 ... ... . . .        . . .


|--------------------------|
|--------------------------|
|--------------------------|    [2X]
|--------------------------|
|000-000--------------0-0-0|
|000-000--------------0-0-0|
 ... ...              . . .


|--------------------------|
|--------------------------|
|--------------------------|    [2X]
|--------------------------|
|000-000-0-0-0--------0-0-0|
|000-000-0-0-0--------0-0-0|
 ... ... . . .        . . .


Comments