Asian Kung-fu Generation - Rewrite Chords & Tabs

 

Rewrite Chords & Tabs

Asian Kung-fu Generation Chords & Tabs

Version: 2 Type: Tab

Rewrite Tab

                             ASIAN KUNG-FU GENERATION
                                    REWRITE

Tabbed by Steven Chow
E-Mail, xazn_ricex@yahoo.com

A great song by a under estimated band of Japan.This is also the theme song of Full
Metal Achemist...if thats what they say......They rock!!! Even though i cannot
understand what they are saying.

INTRO              
1st guitar (distortion)
                   play x3
E|------------------------|------------------------------------------------|
B|------------------------|------------------------------------------------|
D|-11-11--9-9--16--16-----|-----11-11--9-9----16-16-16-16-16-16-16-16-16-16|
G|-X--X---X-X--X---X------|-----X--X---X-X----X--X--X--X--X--X--X--X--X--X-|
A|-9--9---7-7--14--14-----|-----9--9---7-7----14-14-14-14-14-14-14-14-14-14|
E|------------------------|------------------------------------------------|

INTRO
2nd guitar (distortion)
E|-------------------------------------------------------------------------|
B|-------------------------------------------------------------------------|
D|--66666666----------4444444-----------66666666----------4444444-9999999--|
G|--66666666-77777777-4444444-44444444--66666666-77777777-4444444-9999999--|
A|--44444444-77777777-2222222-44444444--44444444-77777777-2222222-7777777--|
E|-----------55555555---------22222222-----------55555555------------------|



BRIDGE
1st guitar
E|-------------------------------------------------------------------------|
B|-------------------------------------------------------------------------|
D|-------------------------------------------------------------------------|
G|--2-2/6-4-2-4-2----2-2/6-4-2-4-2----2-2/6-4-2-4-2----2-2/6-4-2-4-6-------|
A|-0-0--------------2-2--------------0-0--------------2-2------------------|
E|-------------------------------------------------------------------------|

BRIDGE
2nd guit                             play 2x
E|-------------------------------------------------------------------------|
B|-------------------------------------------------------------------------|
D|-------------------------------------------------------------------------|
G|--7777777777777777-9999999999999999--------------------------------------|
A|--7777777777777777-9999999999999999--------------------------------------|
E|--5555555555555555-7777777777777777--------------------------------------|



VERSE 1
1st guitar(clean)       play 4x
E|-------------------------------------------------------------------------|
B|-------------------------------------------------------------------------|
D|---1-4-1---1-------------------------------------------------------------|
G|-------------4-2---------------------------------------------------------|
A|-0-------2---------------------------------------------------------------|
E|-------------------------------------------------------------------------|

 (REPEAT BRIDGE)



VERSE 2
1st guitar (clean)               (distorted)
E|----------------------------|--------------------------------------------|
B|----------------------------|9-9-9-9-9-9-9-9-7-7-7-7-7-7-7-7-9-9-9-9-9-9-|
D|--1-4-1--1------1-4-1--1----|9-9-9-9-9-9-9-9-9-9-9-9-9-9-9-9-9-9-9-9-9-9-|
G|-----------4-2---------4-2--|--------------------------------------------|
A|-0-----2-------0-----2------|--------------------------------------------|
E|----------------------------|--------------------------------------------|

E|-------------------------------------------------------------------------|
B|--7777777-999999999-77777777-99999999------------------------------------|
D|--9999999-999999999-99999999-99999999-16-16-16-16-16---------------------|
G|--------------------------------------X--X--X--X--X----------------------|
A|--------------------------------------14-14-14-14-14---------------------|
E|-------------------------------------------------------------------------|

VERSE 2
2nd guitar
E|-----------------------------|-------------------------------------------|
B|-----------------------------|-------------------------------------------|
D|-----------------------------|-------------------------------------------|
G|--7----9-9-------7----9-9----|--77777777-99999999--77777777-99999999-----|
A|--7----9-9-------7----9-9----|--77777777-99999999--77777777-99999999-----|
E|--5----7-7-------5----7-7----|--55555555-77777777--55555555-77777777-----|



[ Tab from: http://www.guitartabs.cc/tabs/a/asian_kung_fu_generation/rewrite_tab_ver_2.html ]
CHORUS
1st guitar                                  play x12
E|-------------------------------------------------------------------------|
B|-------------------------------------------------------------------------|
D|--11-11--9-9----16-16-16-16-16-16-16-16-16-16----------------------------|
G|--X--X---X-X----X--X--X--X--X--X--X--X--X--X-----------------------------|
A|--9--9---7-7----14-14-14-14-14-14-14-14-14-14----------------------------|
E|-------------------------------------------------------------------------|
                                play x4
E|-------------------------------------------------------------------------|
B|-9-9-9-7-7-7-9-9-9-7-7-7--9-9-7-7----------------------------------------|
D|-9-9-9-9-9-9-9-9-9-9-9-9--9-9-9-9----------------------------------------|
G|-------------------------------------------------------------------------|
A|-------------------------------------------------------------------------|
E|-------------------------------------------------------------------------|

CHORUS 
2nd guitar                                                          play x4
E|-------------------------------------------------------------------------|
B|-------------------------------------------------------------------------|
D|-----------------------------------------------------9999999999999999----|
G|--7777777777777777-6666666666666666-9999999999999999-9999999999999999----|
A|--7777777777777777-6666666666666666-9999999999999999-7777777777777777----|
E|--5555555555555555-4444444444444444-7777777777777777---------------------|



BRIDGE 2
1st guitar (Palm Mute single notes)                    play x2
E|-------------------------------------------------------------------------|
B|-------------------------------------------------------------------------|
D|---------------------------------------9999x9999x9999x9999---------------|
G|---2---6-4-2-4-2---2---6--4-2-4-2--9999x9999x9999x9999-------------------|
A|-0---0-------------0---0---------------7777x7777x7777x7777---------------|
E|---------------------------------------0000x0000x0000x0000---------------|

BRIDGE 2
2nd guitar                                                      play x2
E|-------------------------------------------------------------------------|
B|-------------------------------------------------------------------------|
D|------------------------------------9999X9999-X-11\-999-X-11\-999\-------|
G|------------------------------------9999X9999-X-11\-999-X-11\-999\-------|
A|------------------------------------7777X7777-X-9\--777-X-9\--777\-------|
E|--55555555555555555555555555555555--0000X0000-X-0\--000-X-0\--000\-------|



BRIDGE 3
1st guitar (clean)     play x4
E|--4-------7--------------------------------------------------------------|
B|------5-------5----------------------------------------------------------|
D|----6---6---6---6--------------------------------------------------------|
G|-------------------------------------------------------------------------|
A|-------------------------------------------------------------------------|
E|-------------------------------------------------------------------------|
   (Palm Mute)      play x4
E|--4-------7--------------------------------------------------------------|
B|------5-------5----------------------------------------------------------|
D|----6---6---6---6--------------------------------------------------------|
G|-------------------------------------------------------------------------|
A|-------------------------------------------------------------------------|
E|-------------------------------------------------------------------------|
   (distortion)  play x3
E|--4-------7-----------|----4---------------------------------------------|
B|------5-------5-------|--------5----13-13-13-13--------------------------|
D|----6---6---6---6-----|------6---6--x--x--x--x---------------------------|
G|----------------------|-------------11-11-11-11--------------------------|
A|----------------------|--------------------------------------------------|
E|----------------------|--------------------------------------------------|


BRIDGE 3
2nd guitar    (comes in when the distortion part of 1st guitar is played)
E|-------------------------------------------------------------------------|
B|-------------------------------------------------------------------------|
D|-6---6---6---6-----------------------------------------------------------|
G|-6---6---6---6-----------------------------------------------------------|
A|-4---4---4---4-----------------------------------------------------------|
E|-------------------------------------------------------------------------|


(REPEAT CHORUS)



OUTRO
1st guitar                                  play x3
E|-------------------------------------------------------------------------|
B|-------------------------------------------------------------------------|
D|--11-11--9-9----16-16-16-16-16-16-16-16-16-16----------------------------|
G|--X--X---X-X----X--X--X--X--X--X--X--X--X--X-----------------------------|
A|--9--9---7-7----14-14-14-14-14-14-14-14-14-14----------------------------|
E|-------------------------------------------------------------------------|

OUTRO
2nd guitar
E|-------------------------------------------------------------------------|
B|-------------------------------------------------------------------------|
D|--66666666----------4444444-----------66666666----------4444-------------|
G|--66666666-77777777-4444444-44444444--66666666-77777777-4444-44----------|
A|--44444444-77777777-2222222-44444444--44444444-77777777-2222-44----------|
E|-----------55555555---------22222222-----------55555555------22----------|

NOTE!!!!!
this is my first tab that i tabbed so it might suck but just play it along with
the song and u will get it.i got really bored on Christmas day soo i tabbed this
(merry christmas every1!)