Asian Dub Foundation - La Haine Chords & Tabs

 

La Haine Chords & Tabs

Asian Dub Foundation Chords & Tabs

Version: 1 Type: Tab 0 ratings
1 star 2 stars 3 stars 4 stars 5 stars
comments

La Haine Tab

Intro

E ---------------------------------------------------
B ---------------------------------------------------
G ---8-8-8-6-6--9-9-9-8-8--8-8-8-8-6-8-6-8-8-8-8-----
D ---------------------------------------------------
A ---------------------------------------------------
E ---------------------------------------------------

Verse
(pm)
E ---------------------------------------------------
B ---------------------------------------------------
G ---------------------------------------------------
D ---------------------------------------------------
A ---4-6-6-6-4-6-6-6-6-4-6-6-6-4-6-6-4-2-------------
E ----------------------------------------0----------

End of second verse (also repeated for final Chorus)
[ Tab from: http://www.guitartabs.cc/tabs/a/asian_dub_foundation/la_haine_tab.html ]
E ---10----10----10----10----11----11----11----11----
B ------10----10----10----10----10----10----10----10-
G ---------------------------------------------------
D ---------------------------------------------------
A ---------------------------------------------------
E ---------------------------------------------------

E --12----12----12----12----13----13----13----13-----
B -----10----10----10----10----11----11----11----11--
G ---------------------------------------------------
D ---------------------------------------------------
A ---------------------------------------------------
E ---------------------------------------------------

E --14----14----14----14----15----15----15----15-----
B -----12----12----12----12----13----13----13----13--
G ---------------------------------------------------
D ---------------------------------------------------
A ---------------------------------------------------
E ---------------------------------------------------

E --16----16----16----16----17----17----17----17-----
B -----14----14----14----14----15----15----15----15--
G ---------------------------------------------------
D ---------------------------------------------------
A ---------------------------------------------------
E ---------------------------------------------------
Comments