Ashley Hammond - You Don't Know Me Chords & Tabs

 

You Don't Know Me Chords & Tabs

Ashley Hammond Chords & Tabs

Version: 1 Type: Tab 0 ratings
1 star 2 stars 3 stars 4 stars 5 stars
comments

You Don't Know Me Tab

   
Tabbed by: Ashley Hammond
Email:

Tuning: E A D G B E

Intro/Verse

e|---------2----------------2---------------2---------------2-------|
B|-----2-----2---2------2-----2---2-----2-----2---2-----2-----2---2-|
G|---0---0-----0------0---0-----0-----0---0-----0-----0---0-----0---|
D|------------------------------------------------------------------|
A|--------------------------------------------------3---------------|
E|-3----------------2---------------0-------------------------------|

Pre chrous
[ Tab from: http://www.guitartabs.cc/tabs/a/ashley_hammond/you_dont_know_me_tab.html ]
e|---------2---------------2--------------2---------------2---------|
B|-----3-----3---3-----2-----2---2----2-----2---2-----2-----2---2---|
G|---2---2-----2-----0---0-----0----0---0-----0-----0---0-----0-----|
D|-0---------------2------------------------------------------------|
A|---------------------------------3--------------3-----------------|
E|------------------------------------------------------------------|

chrous

     G    D    Em    C

e|---2----2-h3-0-----0----------------------------------------------|
B|---2----3----0-----2----------------------------------------------|
G|---0----2----0-----0----------------------------------------------|
D|---0----0----2-----2----------------------------------------------|
A|---2----0----2-----3----------------------------------------------|
E|---3----0----0-----0----------------------------------------------|


verse x 3
pre chrous x 2
chrous x 2

verse x 3
pre chrous x 2
chrous x 3
Comments