Ashlee Simpson - Shadow Chords & Tabs

 

Shadow Chords & Tabs

Ashlee Simpson Chords & Tabs

Version: 1 Type: Bass Tab 0 ratings
1 star 2 stars 3 stars 4 stars 5 stars
comments

Shadow Bass Tab

   
Tabbed By: Craig Murphy
Email: Craig.murphy@blueyonder.co.uk
Artist: Ashlee Simpson
Title: Living In The Shadow


Key: \ Slide up
     / Slide down
     * Let Ring

Intro

The bass comes in at 0:17  with the lyrics "I couldn't wish away.."


G ----------------------------------|
D ----------------------------------|
A -/5*--/10-10*--\/10*--\5*---------|
E ----------------------------------|

"Somebody listen please.."
G -------------------------------------------|
D -------------------------------------------|
A -3-3-3-3-3-3-3-3/-10-10-10-10-10-10-10-10--|
E -------------------------------------------| x2

"Living In The Shadow.."
G ------------------------------------------|
D ------------------------------------------|
A -5-5-5-5-5-5-5-5--10-10-10-10-10-10-10-10-|
E ------------------------------------------|
[ Tab from: http://www.guitartabs.cc/tabs/a/ashlee_simpson/shadow_btab.html ]
"Trying to find a hand"
G ------------------------------------------|
D ------------------------------------------|
A -10-10-10-10-10-10-10-10--3-3-3-3-3-3-3-3-|
E ------------------------------------------|
"Every touch felt cold to me..."
G ----------------------------------|
D ----------------------------------|
A -5-5-5-5-5-5-5-5------------------|
E ----------------------------------|

"living in a nightmare.."
G ---------------------------------------------------|
D ---------------------------------------------------|
A -10-10-10-10-10-10-10-10\-/10-10-10-10-10-10-10-10-|
E ---------------------------------------------------|
"My chains are finally free..."
G --------------------------------------|
D --------------------------------------|
A -3-3-3-3-3-3-3-3-5-5-5-5-5-5-5-5--10--|
E --------------------------------------|

"mother father sister"

G -------------------------------------------|
D -------------------------------------------|
A -3-3-3-3-3-3-3-3/-10-10-10-10-10-10-10-10--|
E -------------------------------------------| x2

G ----------------------------------|
D ----------------------------------|
A -5-5-5-5-5-5-5-5/-3-3-3-3-3-3-3-3-|
E ----------------------------------| x2

Any corrections/errors please email me craig.murphy@blueyonder.co.uk
Comments