Ashlee Simpson - Pieces Of Me Chords & Tabs

 

Pieces Of Me Chords & Tabs

Ashlee Simpson Chords & Tabs

Version: 1 Type: Tab 0 ratings
1 star 2 stars 3 stars 4 stars 5 stars
comments

Pieces Of Me Tab

Tabbed by Daniel Chae 7-1-04  

I couldn't find any tabs on this song.. I thought the guitar part was rather catchy.
so i decided to write this myself. 

Try to figure out the strumming on your own. I couldn't really write it out on tabs.
Just try and follow along according to the recording.

Intro

E-------------------|-------0-----0------|
B-------------------|-------0-----0------|
G-------6-----6h7-6-|-------6-----6h7-6--|
D-------0-----0-----|-------x-----x------|
A-------x-----x-----|--7-7--7---7-7------|
E--7-7--7---7-7-----|--------------------|
                                    ..On a Monday..

Verse 1

E-------------------|-------0-----0------|
B-------------------|-------0-----0------|
G-------6-----6h7-6-|-------6-----6h7-6--|
D-------0-----0-----|-------x-----x------|
A-------x-----x-----|--7-7--7---7-7------|
E--7-7--7---7-7-----|--------------------|
..Monday..I am waiting...

E-------------------|-------0-----0------|
B-------3-----3-----|-------0-----0------|
G-------2-----3-----|-------2-----2------|
D-------0-----0-----|-------2-----2------|
A-------x-----x-----|--0-0--0---0-0------|
E--3-3--3---3-3-----|--------------------|       x2
  ..Wednesday I can't sleep...


Pre-Chorus

E--x----------------|--x-----------------|
B--3----------------|--3-----------------|
G--4----------------|--0-----------------|
D--4----------------|--0-----------------|
A--2----------------|--x-----------------|
E-------------------|--3-----------------| 
  Fall with you..     so fast...
  (These are chords... just play throughout the measure)

E--x----------------|--x-----------3-----|
B--3----------------|--1-----------3-----|
G--4----------------|--0-----------0-----|
D--4----------------|--2-----------0-----|
A--2----------------|--3-----------x-----|
E-------------------|--x-----------3-----|
  ..i can hardly..    hope it ... lasts 


Chorus

E--x---------x------|--x--------0--------|
B--3---------3------|--3--------0--------|
G--2---------0------|--0--------2--------|
D--0---------0------|--2--------2--------|
A--x---------x------|--2--------0--------|
E--x---------3------|--0--------x--------|
  ohhhhhh............it seems like..
[ Tab from: http://www.guitartabs.cc/tabs/a/ashlee_simpson/pieces_of_me_tab.html ]
E--x---------x------|--x--------0--------|
B--3---------3------|--3--------0--------|
G--2---------0------|--0--------2--------|
D--0---------0------|--2--------2--------|
A--x---------x------|--2--------0--------|
E--x---------3------|--0--------x--------|        x2
  head on something...i like the way that..

E--x---------------|--------------------|
B--3---------------|--------------------|
G--2---------------|--------------------|
D--0---------------|--------------------|
A--x---------------|--------------------|
E--x---------------|--------------------|         x2
  of the pieces.. pieces..


Verse 2 (same as verse 1)

Pre-Chorus

Chorus

Bridge

E--x----------------|--x-----------------|
B--3----------------|--3-----------------|
G--2----------------|--0-----------------|
D--0----------------|--0-----------------|
A--x----------------|--x-----------------|
E--x----------------|--3-----------------|
   How do you knoooooowww everything i'm..

E--x----------------|--x-----------------|
B--3----------------|--3-----------------|
G--2----------------|--0-----------------|
D--0----------------|--0-----------------|
A--x----------------|--x-----------------|
E--x----------------|--3-----------------|
  about to say..      that obvious..

E--0-------x--------|--0-----------------|
B--3-------3--------|--0-----------------|
G--0-------2--------|--2-----------------|
D--2-------0--------|--2-----------------|
A--2-------x--------|--0-----------------|
E--0-------2--------|--x-----------------|
  ..on my face..     ..never goes...


Intro
              (connector to chorus)
Verse 1

Chorus 3X

Outro

E-------------------|-------0-----0------|
B-------------------|-------0-----0------|
G-------6-----6h7-6-|-------6-----6h7-6--|
D-------0-----0-----|-------x-----x------|
A-------x-----x-----|--7-7--7---7-7------|
E--7-7--7---7-7-----|--------------------|
  Pieces.. Pieces     Pieces of me..

E-------------------|--0-----------------|
B-------------------|--0-----------------|
G-------6-----6h7-6-|--2-----------------|
D-------0-----0-----|--0-----------------|
A-------x-----x-----|--x-----------------|
E--7-7--7---7-7-----|--3-----------------|
 Pieces... Pieces..  Pieces of me..
Comments