Ashlee Simpson - Pieces Of Me Chords & Tabs

 

Pieces Of Me Chords & Tabs

Ashlee Simpson Chords & Tabs

Version: 2 Type: Bass Tab 0 ratings
1 star 2 stars 3 stars 4 stars 5 stars
comments

Pieces Of Me Bass Tab

Tabbed By: Craig Murphy
Email: Craig.murphy@blueyonder.co.uk
Artist: Ashlee Simpson
Title: Pieces Of Me

*this is an updated version my other tab was off on the octaves and bass fill this is 100% correct*


Key: ~ Let Note Ring

Intro

Theres no bass in the intro of first part of the verse the bass comes in at 0:16 with the lyrics
"When the phone rings..."

G ----------------------------------------------------|
D ----------------------------------------------------|
A ----------------------------------------------------|
E -2/4/2/0--------------------------------------------|

G ----------------------------------------------------|
D ----------------------------------------------------|
A --2-2--2-2--7-7--7-7--10-10--10-10--12-12--12-12----|
E ----------------------------------------------------|


Pre-Chorus
"Fall With You..."

G ------------------------------------------|
D ------------------------------------------|
A -2-2-2-2-2-2-2-2--10-10-10-10-10-10-10-10-|
E ------------------------------------------|
[ Tab from: http://www.guitartabs.cc/tabs/a/ashlee_simpson/pieces_of_me_btab_ver_2.html ]
"I Can Hardly..."
G -----------------------------------|
D -----------------------------------|
A -2-2-2-2-2-2-2-2--3-3-3-3--4-4-4-4-|
E -----------------------------------|

Chorus
"OHHHH It Seems Like..."


G ---------------------------------------------|
D ---------------------------------------------|
A --5-5-5-5-10-10-10-10--7-7-7-7--12-12-12-12--|
E ---------------------------------------------| x4

Theres a small fill after the chorus and before the verse and bridge when the bass plays

G --5/7--5/7--5/7 4/2--------------------|
D ----------------------4-2-4------------|
A ---------------------------------------|
E ---------------------------------------|

Bridge
"How Do You Know"

G -------------------------------------------|
D -------------------------------------------|
A -5-5-5-5-5-5-5-5---10-10-10-10-10-10-10-10-|
E -------------------------------------------|x2

G -----------------------------------|
D -----------------------------------|
A -7-7-7-7--9-9-9-9-12~--------------|
E -----------------------------------|

End
G ----------------------------------|
D ----------------------------------|
A -2-2--2-2--7-7---7--7-9/9-2-2-----|
E ---------------7--7-----------4~--|

Any corrections/errors please email me craig.murphy@blueyonder.co.uk
Comments