Ashlee Simpson - Nothing New Live Chords & Tabs

 

Nothing New Live Chords & Tabs

Ashlee Simpson Chords & Tabs

Version: 1 Type: Tab 0 ratings
1 star 2 stars 3 stars 4 stars 5 stars
comments

Nothing New Live Tab

----------------------------------------------------------------------------
	          Nothing New Live Version - Ashlee Simpson
----------------------------------------------------------------------------

Tabbed by: ibanez_player44
Tuning: Standard


INTRO/VERSE
e|-----------------------------------------------------------------------|
B|-----------------------------------------------------------------------|
G|-----------------------------------------------------------------------|
D|-----2---------2------5X-THEN------0---------0------2X-----------------|
A|---2---2-0-2-0---2---------------2---2-----4---2-----------------------|
E|-0-----------------------------3-------3/5-----------------------------|


BEFORE CHORUS
e|-----------------------------------------------------------------------|
B|-----------------------------------------------------------------------|
G|-5-5-5-5-5-5-5-5--7-7-7-7-7-7-7-7--------------------------------------|
D|-5-5-5-5-5-5-5-5--7-7-7-7-7-7-7-7----2X--------------------------------|
A|-3-3-3-3-3-3-3-3--5-5-5-5-5-5-5-5--------------------------------------|
E|-----------------------------------------------------------------------|


CHORUS
e|-----------------------------------------------------------------------|
B|-----------------------------------------------------------------------|
G|-9-9-9-9--11-11-11-11--14-14-14-14--12-12-12-12------------------------|
D|-9-9-9-9--11-11-11-11--14-14-14-14--12-12-12-12--4X--------------------|
A|-7-7-7-7---9--9--9--9--12-12-12-12--10-10-10-10------------------------|
E|-----------------------------------------------------------------------|


VERSE
e|-----------------------------------------------------------------------|
B|-----------------------------------------------------------------------|
G|-----------------------------------------------------------------------|
D|-----2---------2------5X-THEN------0---------0------2X-----------------|
A|---2---2-0-2-0---2---------------2---2-----4---2-----------------------|
E|-0-----------------------------3-------3/5-----------------------------|


BEFORE 2ND CHORUS
e|-----------------------------------------------------------------------|
B|-----------------------------------------------------------------------|
G|-5-5-5-5-5-5-5-5--7-7-7-7-7-7-7-7--------------------------------------|
D|-5-5-5-5-5-5-5-5--7-7-7-7-7-7-7-7----2X--------------------------------|
A|-3-3-3-3-3-3-3-3--5-5-5-5-5-5-5-5--------------------------------------|
E|-----------------------------------------------------------------------|

[ Tab from: http://www.guitartabs.cc/tabs/a/ashlee_simpson/nothing_new_live_tab.html ]
CHORUS
e|-----------------------------------------------------------------------|
B|-----------------------------------------------------------------------|
G|-9-9-9-9--11-11-11-11--14-14-14-14--12-12-12-12------------------------|
D|-9-9-9-9--11-11-11-11--14-14-14-14--12-12-12-12--4X--------------------|
A|-7-7-7-7---9--9--9--9--12-12-12-12--10-10-10-10------------------------|
E|-----------------------------------------------------------------------|


BRIDGE (LISTEN FOR STRUMMING)
e|-----------------------------------------------------------------------|
B|-----------------------------------------------------------------------|
G|-12-12-12-12-12-12-12-12--14-14-14-14-14-14-14-14--9-9-9-9-9-9-9-9-----|
D|-12-12-12-12-12-12-12-12--14-14-14-14-14-14-14-14--9-9-9-9-9-9-9-9-----|
A|-10-10-10-10-10-10-10-10--12-12-12-12-12-12-12-12--7-7-7-7-7-7-7-7-----|
E|-----------------------------------------------------------------------|

e|-----------------------------------------------------------------------|
B|-----------------------------------------------------------------------|
G|-9-9-9-9-9-9-9-9--12-12-12-12-12-12-12-12-12-12-12-12-12-12-12-12------|
D|-9-9-9-9-9-9-9-9--12-12-12-12-12-12-12-12-12-12-12-12-12-12-12-12------|
A|-7-7-7-7-7-7-7-7--10-10-10-10-10-10-10-10-10-10-10-10-10-10-10-10------|
E|-----------------------------------------------------------------------|

e|-----------------------------------------------------------------------|
B|-----------------------------------------------------------------------|
G|-14-14-14-14-14-14-14-14-14-14-14-14-14-14-14-14-----------------------|
D|-14-14-14-14-14-14-14-14-14-14-14-14-14-14-14-14-----------------------|
A|-12-12-12-12-12-12-12-12-12-12-12-12-12-12-12-12-----------------------|
E|-----------------------------------------------------------------------|

CHORUS 
e|-----------------------------------------------------------------------|
B|-----------------------------------------------------------------------|
G|-9-9-9-9--11-11-11-11--14-14-14-14--12-12-12-12------------------------|
D|-9-9-9-9--11-11-11-11--14-14-14-14--12-12-12-12--8X--------------------|
A|-7-7-7-7---9--9--9--9--12-12-12-12--10-10-10-10------------------------|
E|-----------------------------------------------------------------------|


END AFTER
e|---------------------------0-------------------------------------------|
B|---------------------------0-------------------------------------------|
G|---------------------------0-------------------------------------------|
D|-----2---------2------2X---2-------------------------------------------|
A|---2---2-0-2-0---2---------2-------------------------------------------|
E|-0-------------------------0-------------------------------------------|

It sounds pretty close...hope you like it!
Comments