Ashlee Simpson - Love Me For Me Chords & Tabs

 

Love Me For Me Chords & Tabs

Ashlee Simpson Chords & Tabs

Version: 2 Type: Tab 0 ratings
1 star 2 stars 3 stars 4 stars 5 stars
comments

Love Me For Me Tab

Ashlee Simpson
"Love Me For Me"
Autobiography (Geffen/2004)
Standard Tuning

I've seen several chord diagrams laying around this song... but I've decided to do a 
complete tab.
I tried to include every audible thing on the record, so this might sound a bit 
to the simple ear,
but if you listen along to the record, you'll find out the notes are the exact way I 
they are ;).

Anyway, I hope you enjoy this tab, this is my favorite song off this album... any 
are welcome.

1st Verse

  E------------------------|---------------------|------------------------|---------------------|
  B------------------------|---------------------|------------------------|---------------------|
  G--9----------7----------|--2------------------|--9----------7----------|--2--------5----7----|
  D--9----------7----------|--2--------5----7----|--9----------7----------|--2--------5----7----|
  A--7------5-7-5------5-7-|--0--------5----7----|--7------5-7-5------5-7-|--0--------3----5----|
  E------------------------|-----------3----5----|------------------------|---------------------|

  E------------------------|---------------------|------------------------|---------------------|
  B------------------------|---------------------|------------------------|---------------------|
  G--9----------7----------|--2------------------|--9----------7----------|--2--------5----4----|
  D--9----------7----------|--2--------5----7----|--9----------7----------|--2--------5----4----|
  A--7------5-7-5------5-7-|--0--------5----7----|--7------5-7-5------5-7-|--0--------3----2----|
  E------------------------|-----------3----5----|------------------------|---------------------|

Pre-Chorus

  E--------------------------|--------------------------|--------------------------|--------------------------|
  B--------------------------|--------------------------|--------------------------|--------------------------|
  G--5--5--5--5--5--5--5--5--|--7--7--7--7--7--7--7--7--|--5--5--5--5--5--5--5--5--|--7--7--7--7--4--4--4--4--|
  D--5--5--5--5--5--5--5--5--|--7--7--7--7--7--7--7--7--|--5--5--5--5--5--5--5--5--|--7--7--7--7--4--4--4--4--|
  A--3--3--3--3--3--3--3--3--|--5--5--5--5--5--5--5--5--|--3--3--3--3--3--3--3--3--|--5--5--5--5--2--2--2--2--|
  E--------------------------|--------------------------|--------------------------|--------------------------|

*Fill-in 1

Chorus
[ Tab from: http://www.guitartabs.cc/tabs/a/ashlee_simpson/love_me_for_me_tab_ver_2.html ]
  E--------------------------|--------------------------|--------------------------|--------------------------|
  B--------------------------|--------------------------|--------------------------|--------------------------|
  
x2
  D--5--5--5--5--5--5--5--5--|--7--7--7--7--7--7--7--7--|--5--5--5--5--5--5--5--5--|--7--7--7--7--4--4--4--4--|
  A--3--3--3--3--3--3--3--3--|--5--5--5--5--5--5--5--5--|--3--3--3--3--3--3--3--3--|--5--5--5--5--2--2--2--2--|
  E--------------------------|--------------------------|--------------------------|--------------------------|

*Fill-in 1 (only first time)

2nd verse

  E--silence-----|---------------------|------------------------|---------------------|
  B--------------|---------------------|------------------------|---------------------|
  G--------------|--2------------------|--9----------7----------|--2--------5----7----|
  D--------------|--2--------5----7----|--9----------7----------|--2--------5----7----|
  A--------------|--0--------5----7----|--7------5-7-5------5-7-|--0--------3----5----|
  E--------------|-----------3----5----|------------------------|---------------------|
                  ...no I didn't really...

  E------------------------|---------------------|
  B------------------------|---------------------|
  G--9----------7----------|--2--------5----4----|
  D--9----------7----------|--2--------5----4----|
  A--7------5-7-5------5-7-|--0--------3----2----|
  E------------------------|---------------------|

Bridge

  E--------------------------|--------------------------|--------------------------|--------------------------|
  B--------------------------|--------------------------|--------------------------|--------------------------|
  G--5--5--5--5--5--5--5--5--|--4--4--4--4--4--4--4--4--|--9--9--9--9--7--7--7--7--|--------------------------|
  
x2
  A--3--3--3--3--3--3--3--3--|--2--2--2--2--2--2--2--2--|--7--7--7--7--5--5--5--5--|--7--7--7--7--7--7--7--7--|
  E--------------------------|--------------------------|--------------------------|--5--5--5--5--5--5--5--5--|

  E-----|
  B-----|
  G--4--|
  D--4--|
  A--2--|
  E-----|

**Fill-in 1
  E----------|
  B----------|
  G--8-9-11--|
  D----------|
  A----------|
  E----------|

End Solo
  E--/7-------------------------------------10h12--11-12-14--|
  B------/10---------------------------11h12-----------------|
  G-----------/11--/12---9-7b-7---7-9------------------------|
  D------------------------------9---------------------------|
  A----------------------------------------------------------|
  E----------------------------------------------------------|

--
Home of SYN:
http://www.rockpozarica.com
--
Comments