Ashlee Simpson - Lala Chords & Tabs

 

Lala Chords & Tabs

Ashlee Simpson Chords & Tabs

Version: 1 Type: Tab 0 ratings
1 star 2 stars 3 stars 4 stars 5 stars
comments

Lala Tab

-------------------------------------------------------------------------------
			     Lala - Ashlee Simpson
-------------------------------------------------------------------------------

Emailany comments or questions mms39@hotmail.com

Tuning:standard

This song is really easy to play once you listen to the song. This is my first tab and a 
song so have fun!

Intro/Verse

e|--/-------------------------------------------------------------------| \
B|--|-------------------------------------------------------------------| |Repeat
G|--|-3---3---3---3---3---3---6---8---6~---3---3---3---3---3---3---0----| 5x
D|--|-3---3---3---3---3---3---6---8---6~---3---1---1---1---1---1---0----|
A|--|-1---1---1---1---1---1---4---6---4~---1---1---1---1---1---1---0----|
E|--\-------------------------------------------------------------------|

Pre-Chorus

e|---------------------------------------------------------------------------|
B|---------------------------------------------------------------------------|
G|----33333333333333366666666666666------------------------------------------|
D|----33333333333333366666666666666------------------------------------------|
A|----11111111111111144444444444444------------------------------------------|
E|---------------------------------------------------------------------------|

Chorus
[ Tab from: http://www.guitartabs.cc/tabs/a/ashlee_simpson/lala_tab.html ]
e|---------------------------------------------------------------------------|
B|---------------------------------------------------------------------------|
G|----3333333333-6666666666------------3333333333----------------------------|
D|----3333333333-6666666666-5555555555-3333333333----------------------------|
A|----1111111111-4444444444-5555555555-1111111111----------------------------|
E|--------------------------3333333333---------------------------------------|


Bridge

e|---------------------------------------------------------------------------|
B|---------------------------------------------------------------------------|
G|---------------------------------------------------------------------------|
D|---12~--10--8--------------------------------------------------------------|
A|---------------------------------------------------------------------------|
E|---------------------------------------------------------------------------|

repeat those notes throughout the bridge


End on this chord

e|---------------------------------------------------------------------------|
B|---------------------------------------------------------------------------|
G|---3-----------------------------------------------------------------------|
D|---3-----------------------------------------------------------------------|
A|---1-----------------------------------------------------------------------|
E|---------------------------------------------------------------------------|


Intro
Verse
Pre-chorus
Chorus
Verse
Pre-chorus
Chorus
Chorus
Bridge
Intro
Chorus
Chorus
Bridge


| ~  vibrato


For the lyrics to the song go to www.letssingit.com
Comments