Ashlee Simpson - Lala Chords & Tabs

 

Lala Chords & Tabs

Ashlee Simpson Chords & Tabs

Version: 2 Type: Bass Tab 0 ratings
1 star 2 stars 3 stars 4 stars 5 stars
comments

Lala Bass Tab

Artist: Ashlee Simpson
Song: La La
Album: My Autobiography

I couldn't find a correct bass tab for this song, so I tabbed it myself.
Any questions, corrections or comments, e-mail me at grass_stained_capybara@hotmail.com.

Intro and Verse
G---------------------------------|
D-------------0-2-0---------------|
A-2-2-2-2-2-2-------2-2-2-2-2-2-2-|  
E---------------------------------|
[ Tab from: http://www.guitartabs.cc/tabs/a/ashlee_simpson/lala_btab_ver_2.html ]
Pre-Chorus
G----------------------------------|
D----------------------------------|
A-2222222-0000000-2222222-0000000--|
E----------------------------------|

Chorus
G---------------------------------------|
D---------------------------2222222-----|
A-22222222-55555555---------------------|  
E------------------555555555------------|

Chorus Outro

G---------------------------------|
D-------------0-2-0---------------|
A-2-2-2-2-2-2-------2-2-2-2-2-2-2-|  
E---------------------------------|

Bridge 

Play the chorus 

So it goes... 

Intro/Verse X 3 
Pre-Chorus
Chorus X 2
Chorus Outro X 1
Intro/Verse X 3
Pre-Chorus 
Chorus X 2 
Bridge 
Intro/Verse X 2
Chorus until end
Comments