Ashlee Simpson - Giving It All Away Chords & Tabs

 

Giving It All Away Chords & Tabs

Ashlee Simpson Chords & Tabs

Version: 1 Type: Tab 0 ratings
1 star 2 stars 3 stars 4 stars 5 stars
comments

Giving It All Away Tab

Tabbed by Javiera


Intro: 
E|--------------2--------------2----|
B|----------------------------------|
G|--1--1--1--1--1--2--2--2--2--2----|
D|--2--2--2--2--2--2--2--2--2--2----|
A|--2--2--2--2--2-------------------|
E|----------------------------------|


Verse:
E|--------------2--------------2----|
B|----------------------------------|
G|--1--1--1--1--1--2--2--2--2--2----|
D|--2--2--2--2--2--2--2--2--2--2----|
A|--2--2--2--2--2-------------------|
E|----------------------------------|(x4)

Hey you, living for tomorrow, 
You sold your dreams for a pocket of change. 
Hey you smokin up your sorrow, 
Just pointing fingers at someone to blame. 

Hey you, you turn your back on your children
It's left you in the big burning bed
This life's like livin in the gutter, 
All this pain just makes you feel dead. 


Chorus:
E|--------2--2---------------|
B|--------4--4---------------|
G|--1--1--4--4--2--2--2--2---|
D|--2--2--4--4--2--2--2--2---|
A|--2--2--2--2---------------|
E|--------2--2---------------| (x2)

You're just givin' it all, givin' it all away, 
You're just givin' it all, givin' it all away, 
Hey, hey, ey yey, y ey, ey, 


Verse:
E|--------------2--------------2----|
B|----------------------------------|
G|--1--1--1--1--1--2--2--2--2--2----|
D|--2--2--2--2--2--2--2--2--2--2----|
A|--2--2--2--2--2-------------------|
E|----------------------------------|(x2)
[ Tab from: http://www.guitartabs.cc/tabs/a/ashlee_simpson/giving_it_all_away_tab.html ]
Slow down just look a little closer, 
You might find that it's not the end. 
You wonder how your life could get better, 
When you're alone you just tear yourself down. 


Chorus:
E|--------2--2---------------|
B|--------4--4---------------|
G|--1--1--4--4--2--2--2--2---|
D|--2--2--4--4--2--2--2--2---|
A|--2--2--2--2---------------|
E|--------2--2---------------| (x4)

You're just givin' it all, givin' it all away, 
You're just givin' it all, givin' it all away, 

You're just givin' it all, givin' it all away, 
You're just givin' it all, givin' it all away, 
Hey, hey, ey yey, y ey, yey, 


Bridge:
E|--2--2---------------|
B|--4--4---------------|
G|--4--4--2--2--2--2---|
D|--4--4--2--2--2--2---|
A|--2--2---------------|
E|--2--2---------------| (x2)

Try and find your better half now, 
Open your eyes and find yourself. 


Verse:
E|--------------2--------------2----|
B|----------------------------------|
G|--1--1--1--1--1--2--2--2--2--2----|
D|--2--2--2--2--2--2--2--2--2--2----|
A|--2--2--2--2--2-------------------|
E|----------------------------------|(x2)

Hey girl screamin for attention, 
Once you get it you throw it away. 
I'm broken, i'm pickin up the pieces 
I won't live in all your mistakes. 


Chorus:
E|--------2--2---------------|
B|--------4--4---------------|
G|--1--1--4--4--2--2--2--2---|
D|--2--2--4--4--2--2--2--2---|
A|--2--2--2--2---------------|
E|--------2--2---------------| (x4)

I'm just givin' it all, givin' it all away, 
I'm just givin' it all, givin' it all away. 

I'm just givin' it all, givin' it all away, 
I'm just givin'  it all, givin' it all away. 

I'm just giving it up, givin it all away, 
Hey, hey, ey yey, y ey, ey.
Comments