Ashlee Simpson - Coming Back For More Chords & Tabs

 

Coming Back For More Chords & Tabs

Ashlee Simpson Chords & Tabs

Version: 1 Type: Tab

Coming Back For More Tab

this is a really easy song...good for begginners

VERSE
e-------------------------------------------------|
b-------------------------------------------------|
g-3----6---------8--------------------------------|
d-3----6----6----8--------------------------------|
a-1(2x)4(2x)6----6(3x)----------------------------|
E-----------4(3x)---------------------------------|

[ Tab from: http://www.guitartabs.cc/tabs/a/ashlee_simpson/coming_back_for_more_tab.html ]
+=+=+=+=+=+=+=+=+=+=+=+=+=+=+=+=+=+=+=+=+=+=+=+=+=+=

CHORUS
e-------------------------------------------------|
b-------------------------------------------------|
g-3----8---------6----5---------------------------|
d-3----8----6----6----5---------------------------|
a-1(8x)6(8x)6----4(4x)3(4x)-----------------------|
E-----------4(8x)---------------------------------|



I havent worked out the solo  or the bridge so w/e