Ashlee Simpson - Boyfriend Chords & Tabs

 

Boyfriend Chords & Tabs

Ashlee Simpson Chords & Tabs

Version: 4 Type: Tab

Boyfriend Tab

   
----------------------------------------------------------------------------
			     BOYFRIEND - Ashlee Simpson
----------------------------------------------------------------------------
Tabbed by: Stumaster18
Email: ???

Tuning: Standard

Intro:
e|-----------x2-------------------|--------x1-----------|
B|--------------------------------|---------------------|
G|-6-6--4-4-4-4-1--9-9------------|-6-6--4-4-4-4-1--9-9-|
D|-x-x-------------x-x--4-4-4-4-2-|-x-x-------------x-x-|
A|-4-4-------------7-7------------|-4-4-------------7-7-|
E|--------------------------------|---------------------|

Verse:
e|--------------x3--------------------|-----------x1--------------|
B|------------------------------------|---------------------------|
G|-6-6-6-6--9-9-9-9--4-4-4-4--2-2-2-2-|-6-6-6-6--9-9-9-9--4-4-4-4-|
D|-6-6-6-6--9-9-9-9--4-4-4-4--2-2-2-2-|-6-6-6-6--9-9-9-9--4-4-4-4-|
A|-4-4-4-4--7-7-7-7--2-2-2-2--0-0-0-0-|-4-4-4-4--7-7-7-7--2-2-2-2-|
E|------------------------------------|---------------------------|

Chorus:
e|--------------------------------|
B|--------------------------------|
G|-6-------9-------4-------2------|  x2
D|-6-(x8)--9-(x8)--4-(x8)--2-(x8)-|
A|-4-------7-------2-------0------|
E|--------------------------------|

After Chorus Thingy:
e|--------x1-----------|
B|---------------------|
G|-6-6--4-4-4-4-1--9-9-|
D|-x-x-------------x-x-|
A|-4-4-------------7-7-|
E|---------------------|
[ Tab from: http://www.guitartabs.cc/tabs/a/ashlee_simpson/boyfriend_tab_ver_4.html ]
Verse:
e|--------------x3--------------------|-----------x1--------------|
B|------------------------------------|---------------------------|
G|-6-6-6-6--9-9-9-9--4-4-4-4--2-2-2-2-|-6-6-6-6--9-9-9-9--4-4-4-4-|
D|-6-6-6-6--9-9-9-9--4-4-4-4--2-2-2-2-|-6-6-6-6--9-9-9-9--4-4-4-4-|
A|-4-4-4-4--7-7-7-7--2-2-2-2--0-0-0-0-|-4-4-4-4--7-7-7-7--2-2-2-2-|
E|------------------------------------|---------------------------|

Chorus:
e|--------------------------------|
B|--------------------------------|
G|-6-------9-------4-------2------|  x4
D|-6-(x8)--9-(x8)--4-(x8)--2-(x8)-|
A|-4-------7-------2-------0------|
E|--------------------------------|

Interlude:

Guitar 1:
e|-----------x3-------------------|--------x1-----------|
B|--------------------------------|---------------------|
G|-6-6--4-4-4-4-1--9-9------------|-6-6--4-4-4-4-1--9-9-|
D|-6-6-------------9-9--4-4-4-4-2-|-x-x-------------x-x-|
A|-4-4-------------7-7------------|-4-4-------------7-7-|
E|--------------------------------|---------------------|

Guitar 2:
e|--------------x3------------|-----------x1------|
B|----------------------------|-------------------|
G|-6-6--4-4-4-4--9-9--4-4-4-4-|-6-6--4-4-4-4--9-9-|
D|-6-6--4-4-4-4--9-9--4-4-4-4-|-6-6--4-4-4-4--9-9-|
A|-4-4--2-2-2-2--7-7--2-2-2-4-|-4-4--2-2-2-2--7-7-|
E|----------------------------|-------------------|

Pre-Chorus Thing:
e|--------x1------|
B|----------------|
G|-6-6--4-4-4-4-1-|
D|-x-x------------|
A|-4-4------------|
E|----------------|

Chorus:
e|--------------------------------|
B|--------------------------------|
G|-6-------9-------4-------2------|  x4
D|-6-(x8)--9-(x8)--4-(x8)--2-(x8)-|
A|-4-------7-------2-------0------|
E|--------------------------------|

Outro:
e|--------------------------------|
B|--------------------------------|
G|-6-------9-------4-------2------|  x2
D|-6-(x8)--9-(x8)--4-(x8)--2-(x8)-|
A|-4-------7-------2-------0------|
E|--------------------------------|

End With:
e|---|
B|---|
G|-6-|
D|-6-|
A|-4-|
E|---|