Ashlee Simpson - Boyfriend Chords & Tabs

 

Boyfriend Chords & Tabs

Ashlee Simpson Chords & Tabs

Version: 3 Type: Tab 0 ratings
1 star 2 stars 3 stars 4 stars 5 stars
comments

Boyfriend Tab

Ashlee Simpson
Boyfriend
Tuning: Standard

Intro
e|------------------------------|
B|------------------------------|    Repeat 2x
G|------------------------------|
D|-----9999---------------------|
A|----------11--7-7--9999-7-----|
E|--9-9-------------------------|

e|------------------------------|
B|------------------------------|
G|------------------------------|   End of Intro
D|-----9999---------------------|
A|-----------11--7-7------------|
E|--9-9-------------------------|


Verse 1
e|------------------------------------------------------|
B|------------------------------------------------------|
G|--6-6-6-6-9-9-9-9-------------------------------------|  Repeat 2x
D|--6-6-6-6-9-9-9-9-9-9-9-9-7-7-7-7---------------------|
A|--4-4-4-4-7-7-7-7-9-9-9-9-7-7-7-7---------------------|
E|------------------7-7-7-7-5-5-5-5---------------------|


Pre-Chorus 1
e|------------------------------------------------------|
B|------------------------------------------------------|
G|--6-6-6-6-9-9-9-9-------------------------------------|
D|--6-6-6-6-9-9-9-9-9-9-9-9-7-7-7-7---------------------|
A|--4-4-4-4-7-7-7-7-9-9-9-9-7-7-7-7---------------------|
E|------------------7-7-7-7-5-5-5-5---------------------|

e|------------------------------------------------------|
B|------------------------------------------------------|
G|--6-6-6-6-9-9-9-9-------------------------------------|
D|--6-6-6-6-9-9-9-9-9-9-9-9-----------------------------|
A|--4-4-4-4-7-7-7-7-9-9-9-9-----------------------------|
E|------------------7-7-7-7-----------------------------|

Chorus
e|------------------------------------------------------|
B|------------------------------------------------------|
G|--66666666-99999999-----------------------------------|
D|--44444444-99999999-99999999-77777777-----------------|
A|--44444444-77777777-99999999-77777777-----------------|
E|--------------------77777777-55555555-----------------|

e|------------------------------------------------------|
B|------------------------------------------------------|
G|--66666666-99999999-----------------------------------|
D|--44444444-99999999-99999999-7777777-7-7--------------|
A|--44444444-77777777-99999999-7777777-7-7--------------|
E|--------------------77777777-5555555-5-5--------------|


Interlude
e|------------------------------|
B|------------------------------|
G|------------------------------|
D|-----9999---------------------|
A|-----------11--7-7------------|
E|--9-9-------------------------|

Verse 2
e|------------------------------------------------------|
B|------------------------------------------------------|
G|--6-6-6-6-9-9-9-9-------------------------------------|  Repeat 2x
D|--6-6-6-6-9-9-9-9-9-9-9-9-7-7-7-7---------------------|
A|--4-4-4-4-7-7-7-7-9-9-9-9-7-7-7-7---------------------|
E|------------------7-7-7-7-5-5-5-5---------------------|
[ Tab from: http://www.guitartabs.cc/tabs/a/ashlee_simpson/boyfriend_tab_ver_3.html ]
Pre-chorus 2
e|------------------------------------------------------|
B|------------------------------------------------------|
G|--6-6-6-6-9-9-9-9-------------------------------------|
D|--6-6-6-6-9-9-9-9-9-9-9-9-7-7-7-7---------------------|
A|--4-4-4-4-7-7-7-7-9-9-9-9-7-7-7-7---------------------|
E|------------------7-7-7-7-5-5-5-5---------------------|

e|------------------------------------------------------|
B|------------------------------------------------------|
G|--6-6-6-6-9-9-9-9-------------------------------------|
D|--6-6-6-6-9-9-9-9-9-9-9-9-----------------------------|
A|--4-4-4-4-7-7-7-7-9-9-9-9-----------------------------|
E|------------------7-7-7-7-----------------------------|

Chorus
e|------------------------------------------------------|
B|------------------------------------------------------|
G|--66666666-99999999-----------------------------------|
D|--44444444-99999999-99999999-77777777-----------------| Repeat 3x
A|--44444444-77777777-99999999-77777777-----------------|
E|--------------------77777777-55555555-----------------|

e|------------------------------------------------------|
B|------------------------------------------------------|
G|--66666666-99999999-----------------------------------|
D|--44444444-99999999-99999999-7777777-7-7--------------|
A|--44444444-77777777-99999999-7777777-7-7--------------|
E|--------------------77777777-5555555-5-5--------------|

Little Solo Thing... Like the Intro
e|------------------------------|
B|------------------------------|    Repeat 4x
G|------------------------------|
D|-----9999---------------------|
A|----------11--7-7--9999-7-----|
E|--9-9-------------------------|

PAUSE

e|------------------------------|
B|------------------------------|
G|------------------------------|
D|-----9999---------------------|
A|-----------11--7-7------------|
E|--9-9-------------------------|

Chorus
e|------------------------------------------------------|
B|------------------------------------------------------|
G|--66666666-99999999-----------------------------------|
D|--44444444-99999999-99999999-77777777-----------------| Repeat 3x
A|--44444444-77777777-99999999-77777777-----------------|
E|--------------------77777777-55555555-----------------|

e|------------------------------------------------------|
B|------------------------------------------------------|
G|--66666666-99999999-----------------------------------|
D|--44444444-99999999-99999999-777777777----------------|
A|--44444444-77777777-99999999-777777777----------------|
E|--------------------77777777-555555555----------------|

The ending of the song when shes doing her "whoa's" and the last thing she says is.."i 
steal your boyfriend!"
e|------------------------------------------------------|
B|------------------------------------------------------|
G|--66666666-99999999-----------------------------------|
D|--44444444-99999999-99999999-77777777-----------------|
A|--44444444-77777777-99999999-77777777-----------------|
E|--------------------77777777-55555555-----------------|

e|------------------------------------------------------|
B|------------------------------------------------------|
G|--66666666-99999999-----------------------------------|
D|--44444444-99999999-99999999-7777777-6-6--------------|
A|--44444444-77777777-99999999-7777777-6-6--------------|
E|--------------------77777777-5555555-4-4--------------|

thats it... yeah, so enjoy

Tabbed by Ariana H.
imsuchadork73@aim.com
Comments