Ashlee Simpson - Boyfriend Chords & Tabs

 

Boyfriend Chords & Tabs

Ashlee Simpson Chords & Tabs

Version: 2 Type: Tab 0 ratings
1 star 2 stars 3 stars 4 stars 5 stars
comments

Boyfriend Tab

Intro:
e----------------------------------------|
B----------------------------------------| pick to what they are doing in the
G------4-4-4-----------------------------| song
D------------6-----4-4-4-----------------|(x2)
A--4-4---------7-7--------7--------------|
E----------------------------------------|

e----------------------------------------|
B----------------------------------------|
G------4-4-4-----------------------------|
D------------6---------------------------|
A--4-4---------7-7-----------------------|
E----------------------------------------|

Verse:
e----------------------------------------|
B--5-5-5-5--9-9-9-9----------------------|
G--6-6-6-6--9-9-9-9--8-8-8-8--6-6-6-6----|
D--6-6-6-6--9-9-9-9--9-9-9-9--7-7-7-7----| (x4)
A--4-4-4-4--7-7-7-7--9-9-9-9--7-7-7-7----|
E--------------------7-7-7-7--5-5-5-5----|

Chorus:
e-----------------------------------------------------------------------|
B--5-5-5-5-5-5-5-5--9-9-9-9-9-9-9-9-------------------------------------|
G--6-6-6-6-6-6-6-6--9-9-9-9-9-9-9-9--8-8-8-8-8-8-8-8--6-6-6-6-6-6-6-6---|
D--6-6-6-6-6-6-6-6--9-9-9-9-9-9-9-9--9-9-9-9-9-9-9-9--7-7-7-7-7-7-7-7---|(x4)
A--4-4-4-4-4-4-4-4--7-7-7-7-7-7-7-7--9-9-9-9-9-9-9-9--7-7-7-7-7-7-7-7---|
E------------------------------------7-7-7-7-7-7-7-7--5-5-5-5-5-5-5-5---|

after chorus?:
e----------------------------------------|
B----------------------------------------|
G--6-6--16-16-16--13--9-9--11-11-11--9---|
D----------------------------------------| (x2)
A--4-4--14-14-14--11--7-7--9--9--9---7---|
E----------------------------------------|

e----------------------------------------|
B----------------------------------------|
G--6-6--16-16-16--13--9-9----------------|
D----------------------------------------|
A--4-4--14-14-14--11--7-7----------------|
E----------------------------------------|

interlude:
e----------------------------------------|
B----------------------------------------|
G------4-4-4-----------------------------|
D------------6---------------------------|
A--4-4---------7-7-----------------------|
E----------------------------------------|

Verse:
e----------------------------------------|
B--5-5-5-5--9-9-9-9----------------------|
G--6-6-6-6--9-9-9-9--8-8-8-8--6-6-6-6----|
D--6-6-6-6--9-9-9-9--9-9-9-9--7-7-7-7----| (x4)
A--4-4-4-4--7-7-7-7--9-9-9-9--7-7-7-7----|
E--------------------7-7-7-7--5-5-5-5----|
[ Tab from: http://www.guitartabs.cc/tabs/a/ashlee_simpson/boyfriend_tab_ver_2.html ]
Chorus:
e-----------------------------------------------------------------------|
B--5-5-5-5-5-5-5-5--9-9-9-9-9-9-9-9-------------------------------------|
G--6-6-6-6-6-6-6-6--9-9-9-9-9-9-9-9--8-8-8-8-8-8-8-8--6-6-6-6-6-6-6-6---|
D--6-6-6-6-6-6-6-6--9-9-9-9-9-9-9-9--9-9-9-9-9-9-9-9--7-7-7-7-7-7-7-7---|(x3)
A--4-4-4-4-4-4-4-4--7-7-7-7-7-7-7-7--9-9-9-9-9-9-9-9--7-7-7-7-7-7-7-7---|
E------------------------------------7-7-7-7-7-7-7-7--5-5-5-5-5-5-5-5---|

e-----------------------------------------------------------------------|
B--5-5-5-5-5-5-5-5--9-9-9-9-9-9-9-9-------------------------------------|
G--6-6-6-6-6-6-6-6--9-9-9-9-9-9-9-9--8-8-8-8-8-8-8-8--6-6-6-6--6--6-----|
D--6-6-6-6-6-6-6-6--9-9-9-9-9-9-9-9--9-9-9-9-9-9-9-9--7-7-7-7--7--7-----|
A--4-4-4-4-4-4-4-4--7-7-7-7-7-7-7-7--9-9-9-9-9-9-9-9--7-7-7-7--7--7-----|
E------------------------------------7-7-7-7-7-7-7-7--5-5-5-5--5--5-----|

after chorus?:
e----------------------------------------|
B----------------------------------------|
G--6-6--16-16-16--13--9-9--11-11-11--9---|
D----------------------------------------| (x2)
A--4-4--14-14-14--11--7-7--9--9--9---7---|
E----------------------------------------|

e----------------------------------------|
B----------------------------------------|
G--6-6--16-16-16--13--9-9----------------|
D----------------------------------------|
A--4-4--14-14-14--11--7-7----------------|
E----------------------------------------|
interlude:
e----------------------------------------|
B----------------------------------------|
G------4-4-4-----------------------------|
D------------6---------------------------|
A--4-4---------7-------------------------|
E----------------------------------------|

Chorus:
e-----------------------------------------------------------------------|
B--5-5-5-5-5-5-5-5--9-9-9-9-9-9-9-9-------------------------------------|
G--6-6-6-6-6-6-6-6--9-9-9-9-9-9-9-9--8-8-8-8-8-8-8-8--6-6-6-6-6-6-6-6---|
D--6-6-6-6-6-6-6-6--9-9-9-9-9-9-9-9--9-9-9-9-9-9-9-9--7-7-7-7-7-7-7-7---|
A--4-4-4-4-4-4-4-4--7-7-7-7-7-7-7-7--9-9-9-9-9-9-9-9--7-7-7-7-7-7-7-7---|
E------------------------------------7-7-7-7-7-7-7-7--5-5-5-5-5-5-5-5---|

e-----------------------------------------------------------------------|
B--5-5-5-5-5-5-5-5--9-9-9-9-9-9-9-9-------------------------------------|
G--6-6-6-6-6-6-6-6--9-9-9-9-9-9-9-9--8-8-8-8-8-8-8-8--6-6-6-6--6--6-----|
D--6-6-6-6-6-6-6-6--9-9-9-9-9-9-9-9--9-9-9-9-9-9-9-9--7-7-7-7--7--7-----|
A--4-4-4-4-4-4-4-4--7-7-7-7-7-7-7-7--9-9-9-9-9-9-9-9--7-7-7-7--7--7-----|
E------------------------------------7-7-7-7-7-7-7-7--5-5-5-5--5--5-----|


that's it...enjoi
ashley_ohh@hotmail.com
Comments