Ashlee Simpson - Boyfriend Chords & Tabs

 

Boyfriend Chords & Tabs

Ashlee Simpson Chords & Tabs

Version: 1 Type: Tab 0 ratings
1 star 2 stars 3 stars 4 stars 5 stars
comments

Boyfriend Tab

Awesome new song by Ashlee Simpson "Boyfriend" off her new cd "I Am Me"

                    Boyfriend by Ashlee Simpson


Intro (Use Downstrokes)
[ Tab from: http://www.guitartabs.cc/tabs/a/ashlee_simpson/boyfriend_tab.html ]
e---------------------------------------------------------------------------|
b---------------------------------------------------------------------------|
g--6-6--16-16-16-16--13--9-9--11-11-11-11--9--6-6-----Repeat--3rd Time--9-9-|
d--x-x---x--x--x--x---x--x-x---x--x--x--x--x--x-x-------3x----end on----x-x-|
a--4-4--14-14-14-14--11--7-7---9--9--9--9--7--4-4-----------------------7-7-|
E---------------------------------------------------------------------------|

Verse (Use Downstrokes only)

e--------------------------------------------------------------------------|
b--------------------------------------------------------------------------|
g--6-6-6-6--9-9-9-9--8-8-8-8--5-5-5-5-----------Repeat--6x-----------------|
d--6-6-6-6--9-9-9-9--8-8-8-8--5-5-5-5--------------------------------------|
a--4-4-4-4--7-7-7-7--6-6-6-6--3-3-3-3--------------------------------------|
E--------------------------------------------------------------------------|


Let me know how i did on the tab RATE ME!
Comments