Ashanti - Only You Chords & Tabs

 

Only You Chords & Tabs

Ashanti Chords & Tabs

Version: 3 Type: Tab 0 ratings
1 star 2 stars 3 stars 4 stars 5 stars
comments

Only You Tab

This isnt the same key as the original. I've transposed it so it sounds correct and
it's a bit easier to play.
[ Tab from: http://www.guitartabs.cc/tabs/a/ashanti/only_you_tab_ver_3.html ]
E|-----------------------------------|
B|-----------------------------------|
G|-----------------------------------|
D|-----------------------------------|
A|----2---------------0--3--0--3-----|
E|-0--------0--2--3------------------|

E|-----------------------------------|
B|-----------------------------------|
G|-----------------------------------|
D|-----------------------------------|
A|----2---------------0--3----2------|
E|-0--------0--2--3---------3--------|
Comments