Ash - Wont Be Saved Chords & Tabs

 

Wont Be Saved Chords & Tabs

Ash Chords & Tabs

Version: 1 Type: Tab 0 ratings
1 star 2 stars 3 stars 4 stars 5 stars
comments

Wont Be Saved Tab

   
This 100% my own work, may not be completely accurate, but its close enough.

Intro:      Eb       Cm
	e|-------------------|
	B|--8-6-4-3--6-4-3-1-|
	G|-------------------|
	D|-------------------|
	A|-------------------|
	E|-------------------|

     Eb   Cm F Bb  Eb F Bb
No I wont be saved
     Eb   Cm F Bb  Eb F Bb
No I wont be saved

Verse:
Gm       F     Bb
Heart is in my mouth
     Gm      F     Bb (Bbsus4 Bb Bbsus2 Bb ---quickly)
As I turn my face away
      Gm        F     Bb
And I walk down the deserted streets
Gm  F        Eb
Desolate and grey
             F  Bb
Nothing more to say
Gm     F        Bb (Bbsus4 Bb Bbsus2 Bb ---quickly)
Whispering your name
Gm    F      Bb (Bbsus4 Bb Bbsus2 Bb ---quickly)
Under winter skies
  Gm       F      Bb
Imprisoned by the thought of you
Gm       F       Eb
Captured by your eyes
   F  Bb
Mesmerised

Chorus:
     Eb    Cm F Bb
No I won't be saved
       Eb     F    Bb
I will always be enslaved
     Eb    Cm F Bb
No I won't be saved
      Eb         F      Bb
In my heart your name engraved
Eb            Cm
Aahh ah ah ah aahh ah ah ah

Verse:
Gm       F     Bb
I'm down on my knees
     Gm      F    Bb (Bbsus4 Bb Bbsus2 Bb ---quickly)
In a willing sacrifice
  Gm       F       Bb
I won't confess my transgressions
  Gm      F       Eb
I won't repent my vice
         F   Bb
I'll pay the price

Chorus:
     Eb    Cm F Bb
No I won't be saved
       Eb     F    Bb
I will always be enslaved
     Eb    Cm F Bb
No I won't be saved
      Eb         F      Bb
In my heart your name engraved
[ Tab from: http://www.guitartabs.cc/tabs/a/ash/wont_be_saved_tab.html ]
Solo...:

     Cm              Bb      Dm/F
e|---8-8-8-8-8-8-8-8-6-6-6-6-5-5-5-5--|
B|----8-8-8-8-8-8-8-8-6-6-6-6-6-6-6-6-|
G|------------------------------------|
D|------------------------------------|
A|------------------------------------|
E|------------------------------------|
No I won't be saved I won't be saved

     Cm              Eb      Dm/F
e|---8-8-8-8-8-8-8-8-6-6-6-6-5-5-5-5--|
B|----8-8-8-8-8-8-8-8-6-6-6-6-6-6-6-6-|
G|------------------------------------|
D|------------------------------------|
A|------------------------------------|
E|------------------------------------|
No I won't be saved I won't be saved

Verse:
    Gm      F       Bb
The visions come at night
  Gm       F    Bb (Bbsus4 Bb Bbsus2 Bb ---quickly)
I feel I'm hypnotised
  Gm      F    Bb
I tremble as I fall into
    Gm      F       Eb
The furnace of your eyes
        F  Bb
And out of sight  yeeeaaahhhh

Chorus:
     Eb    Cm F Bb
No I won't be saved
       Eb     F    Bb
I will always be enslaved
     Eb    Cm F Bb
No I won't be saved
       Eb     F    Bb
I will love you to the grave
     Eb    Cm F Bb
No I won't be saved
       Eb     F    Bb
I will always be enslaved
     Eb    Cm F Bb
No I won't be saved
       Eb     F    Bb
In my heart your name engraved

Outro:
Eb           Cm           Bb           Eb
Falling down falling down falling down falling down x2

e|------5-6-6-----------5-6-5-6-8-10--|
B|--6-8---------6-8-6-8---------------|
G|------------8-----------------------|
D|------------------------------------|
A|------------------------------------|
E|------------------------------------|
Play over Falling down bit x2 (or something along Bbmajor)

Eb     F      Gm

And thats it. Any corrections/comments email zeidrich@hotmail.com
Have fun.
Comments