Ash - Wont Be Saved Chords & Tabs

 

Wont Be Saved Chords & Tabs

Ash Chords & Tabs

Version: 1 Type: Bass Tab 0 ratings
1 star 2 stars 3 stars 4 stars 5 stars
comments

Wont Be Saved Bass Tab

   
Song: Won't Be Saved
Artist: Ash
Tabber: Zeidrich

Intro is guitar then...

Chorus:

G|-------------------------------------------------------------|
D|-------------------------------------------------------------|
A|-6--6-6-3--3-3/8-8-8----------6--6-6-8-8-8-------------------| x2
E|---------------------6--6-6-6---------------6--6-6-6-6-6-6-6-|

Verse: No bass for a wee while

G|-------------------------|
D|-------------------------|
A|-----------3-x-3--3-3-3--| x3
E|--3-3--1-1---------------|

G|--------------------------------------------------------|
D|--------------------------------------------------------|
A|------8-8-6--6-6-6--6-6-6-6--6-6-8-8-8------------------|
E|--3-3----------------------------------6--6-6-6-6-6-6-6-|

Chorus:

G|-------------------------------------------------------------|
D|-------------------------------------------------------------|
A|-6--6-6-3--3-3/8-8-8----------6--6-6-8-8-8-------------------| x2
E|---------------------6--6-6-6---------------6--6-6-6-6-6-6-6-|

Bridge:

G|---------------------------------|
D|---------------------------------|
A|-6-6-6-6-6-6-6-6-3-3-3-3-3-3-3-3-|
E|---------------------------------|

Verse:

G|-------------------------|
D|-------------------------|
A|-----------3-x-3--3-3-3--| x3
E|--3-3--1-1---------------|

G|--------------------------------------------------------|
D|--------------------------------------------------------|
A|------8-8-6--6-6-6--6-6-6-6--6-6-8-8-8------------------|
E|--3-3----------------------------------6--6-6-6-6-6-6-6-|

G|----------------------------------------------|
D|----------------------------------------------|
A|-13-13-13--13--13-13--13-13-13-13-13-13-13-13-|
E|----------------------------------------------|

Chorus:

G|-------------------------------------------------------------|
D|-------------------------------------------------------------|
A|-6--6-6-3--3-3/8-8-8----------6--6-6-8-8-8-------------------| x2
E|---------------------6--6-6-6---------------6--6-6-6-6-6-6-6-|

Solo:
[ Tab from: http://www.guitartabs.cc/tabs/a/ash/wont_be_saved_btab.html ]
G|----------------------------------------------------------|
D|----------------------------------------------------------|
A|--3-3--3--3-3-3-3-3--3/8-6-5--1-1--1--1-1-1---------------|
E|--------------------------------------------1-1--1--1-1-1-|

G|----------------------------------------------------------|
D|----------------------------------------------------------|
A|--3-3--3--3-3-3-3-3--3/8-6-5--6-6--6--6-6-6---------------|
E|--------------------------------------------1-1--1--1-1-1-|

Verse:

G|-----------    -----------------------------------------|
D|-----------    -----------------------------------------|
A|--------1-- x3 -----8--6---6-6--8-8-8-------------------|
E|--3--1-----    --3---------------------6--6-6-6-6-6-6-6-|

G|----------------------------------------------|
D|----------------------------------------------|
A|-13-13-13--13--13-13--13-13-13-13-13-13-13-13-|
E|----------------------------------------------|

Chorus:

G|-------------------------------------------------------------|
D|-------------------------------------------------------------|
A|-6--6-6-3--3-3/8-8-8----------6--6-6-8-8-8-------------------| x2
E|---------------------6--6-6-6---------------6--6-6-6-6-6-6-6-|

G|---------------------------------------------------------------|
D|---------------------------------------------------------------|
A|-6-6-6-6-3-3-3-3/8-8-8----------6--6-6-8-8-8-------------------|
E|-----------------------6--6-6-6---------------6--6-6-6-6-6-6-6-|

G|-------------------------------------------------------------|
D|-------------------------------------------------------------|
A|-6--6-6-3--3-3/8-8-8----------6--6-6-8-8-8-------------------|
E|---------------------6--6-6-6---------------6--6-6-6-6-6-6-6-|

Outro:

G|-----------------------------------------------------------------|
D|-----------------------------------------------------------------|
A|-6-6-6-6-6-6-6-6-3-3-3-3/8-8-8-8-----------------8-8-8-8-8-8-8-8-| x4
E|---------------------------------6-6-6-6-6-6-6-6-----------------|

G|--------------------------------------|
D|--------------------------------------|
A|-6-6-6-6-6-6-6-6-8-8-8-8-8-8-8-8------|
E|---------------------------------3----|
Comments