Ash - Vampire Love Chords & Tabs

 

Vampire Love Chords & Tabs

Ash Chords & Tabs

Version: 1 Type: Tab 0 ratings
1 star 2 stars 3 stars 4 stars 5 stars
comments

Vampire Love Tab

   
This took me a while lol

Artist: Ash
Song: Vampire Love
Tabber: Zeidrich

Intro:
e|-3-3-3-3-3-3-3-3-2-2-2-2---------7-7-7-7-7-7-7-7-3-3-3-3---------|
B|-------------------------3-3-----------------------------3-3-----|
G|-----------------------------2-2-----------------------------2-2-|  x2
D|-----------------------------------------------------------------|
A|-----------------------------------------------------------------|
E|-----------------------------------------------------------------|

e|----------------------------------|
B|----------------------------------|
G|-----------------------------7799-|
D|-55555555444477779999999977997799
A|-55555555444477779999999977995577
E|-3333333322225555777777775577----  x2

Verse: Palm Muted

e|-----------------------------------|
B|-----------------------------------|
G|-----------------------------------|
D|-----------------------------------|
A|-----------------------------5577--|
E|-3333333322225555777777775577------| x3

e|-------------------------------|
B|-------------------------------|
G|-------------------------------|
D|-------------------------------|
A|-----------------------------5-|
E|-3333333322225555777777775577--|

Chorus:

e|-----------------------------------------------------------------|
B|-----------------------------------------------------------------|
G|-------------------------77777777--------------------------------|
D|-5555555544444444999999997777777755555555555555554444444444444444
A|-5555555544444444999999995555555555555555555555554444444444444444
E|-333333332222222277777777--------33333333333333332222222222222222 x4

Then play Intro again, then verse again, then chorus again

Pre-Chorus:

e|----------|
B|----------|
G|----------|
D|-7-5-4-3--|
A|-7-5-4-3--|
E|-5-3-2-1--| x2

Solo: lots of wah

e|-10b11~-11-11-11-11-11r10-------------------------------------------|
B|--------------------------10b11-11-11-11-11-11r10---8---------------|
G|--------------------------------------------------9---9tr7----------|
D|--------------------------------------------------------------------|
A|--------------------------------------------------------------------|
E|--------------------------------------------------------------------|

e|-------------------10-------12p10p7-12p10p7-12p10p7-12p10p7-10b11~-|
B|-10b11--11r10-8-10----10-8-----------------------------------------|
G|-------------------------------------------------------------------|
D|-------------------------------------------------------------------|
A|-------------------------------------------------------------------|
E|-------------------------------------------------------------------|

[ Tab from: http://www.guitartabs.cc/tabs/a/ash/vampire_love_tab.html ]
e|-14b15-15b17-14b15--10b11-11-11-11-11-11r10--------------------------|
B|---------------------------------------------10b11-11-11-11-11-11r10-|
G|---------------------------------------------------------------------|
D|---------------------------------------------------------------------|
A|---------------------------------------------------------------------|
E|---------------------------------------------------------------------|


e|--------------------------------------------|
B|---------8b9-7b8----------------------------|
G|-7b9-6b7----------9-8-7---------------------|
D|------------------------9-8-7-5-------------|
A|--------------------------------7-5---------|
E|------------------------------------5-4-3---|

  (Tapping)
e|--------------------------------------------------------------------|
B|-12-3-5-12-3-5-12-3-5-12-3-5-11-3-5-11-3-5-11-3-5-11-3-5------------|
G|--------------------------------------------------------------------|
D|--------------------------------------------------------------------|
A|--------------------------------------------------------------------|
E|--------------------------------------------------------------------|

e|--------------------------------------------------------------------|
B|-12-0-3-12-0-3-12-0-3-12-0-3-15-0-3-15-0-3-15-0-3-15-0-3------------|
G|--------------------------------------------------------------------|
D|--------------------------------------------------------------------|
A|--------------------------------------------------------------------|
E|--------------------------------------------------------------------|

e|--------------------------------------------------------------------|
B|-12-3-5-12-3-5-12-3-5-12-3-5-11-3-5-11-3-5-11-3-5-11-3-5------------|
G|--------------------------------------------------------------------|
D|--------------------------------------------------------------------|
A|--------------------------------------------------------------------|
E|--------------------------------------------------------------------|

e|--------------------------------------------------------------------|
B|-12-0-3-12-0-3-12-0-3-12-0-3-7-3-5-7-3-5-7s8s7----------------------| (End Tapping)
G|--------------------------------------------------------------------|
D|--------------------------------------------------------------------|
A|--------------------------------------------------------------------|
E|--------------------------------------------------------------------|

e|------------------------------|
B|------------------------------|
G|------------------7b8-8r7-6-7-|
D|-7b8-8r7-4h5p4-7--------------|
A|------------------------------|
E|------------------------------|

Weirdy guitar effects and much drummage, then back into Chorus x4, then to finish...

Outro:

e|-----------------    e|----------|
B|-----------------    B|----------|
G|-----------------    G|----------|
D|-5555555544444444    D|-5-4-7-9~-|
A|-5555555544444444    A|-5-4-7-9~-|
E|-3333333322222222 x3 E|-3-2-5-7~-|

May not be 100% perfect but it's close enough. Comments/corrections welcome
Comments