Ash - Vampire Love Chords & Tabs

 

Vampire Love Chords & Tabs

Ash Chords & Tabs

Version: 1 Type: Bass Tab 0 ratings
1 star 2 stars 3 stars 4 stars 5 stars
comments

Vampire Love Bass Tab

Artist: Ash
Song: Vampire Love
Tabber: Zeidrich

Intro:

Some guitar then...

G|------------------------------------|
D|------------------------------------|
A|-----------------------------5577---|
E|-3333333322225555777777775577-------|  x4

Verse:

G|-----------------------------------|
D|-----------------------------------|
A|-----------------------------5577--|
E|-3333333322225555777777775577------| x3

G|-------------------------------|
D|-------------------------------|
A|-----------------------------5-|
E|-3333333322225555777777775577--|

OR you can play this, I cant tell which he plays:

G|------------------|
D|--5-5-4-4-9-9-7-7-|
A|------------------|
E|-3-3-2-2-7-7-5-5--| x3

G|------------------|
D|--5-5-4-4-9-9-7---|
A|------------------|
E|-3-3-2-2-7-7-5-5--|

Chorus:

G|-------------------------------------------------------------------|
D|-------------------------------------------------------------------|
A|-------------------------557755--------------------------99999999--|
E|-333333332222555577777777------77333333333333555522222222----------| x2

Then play Intro x2, then verse again, then chorus again

Pre-Chorus:
[ Tab from: http://www.guitartabs.cc/tabs/a/ash/vampire_love_btab.html ]
G|------------------    ----|
D|------------------    ----|
A|------------------    ----|
E|-5/8-3/8-2/8-1/8-- x2 --0-|

Solo:

G|------------------------------------------|
D|------------------------------------------|
A|--------------------------------------5---|
E|-0--0-0-0--0-3-2-1-0--5--5-5-5--5-8-5---5-|  x4

G|-----------------------------------|
D|-----------------------------------|
A|-----------------------------5577--|
E|-3333333322225555777777775577------| x4

Bridge: Rest a bit while guitar plays some bits

G|----------------------------------|
D|----------------------------------|
A|-----------------------------5577-|
E|-3333333322225555777777775577-----|

G|---------------------------------|
D|---------------------------------|
A|---------------------------------|
E|-3333333322225555777777775-------|

Chorus:

G|-------------------------------------------------------------------|
D|-------------------------------------------------------------------|
A|-------------------------557755--------------------------99999999--| x4
E|-333333332222555577777777------77333333333333555522222222----------|

Outro:

G|----------------------------------    ------------|
D|----------------------------------    ------------|
A|-------------------------99999999- x4 ------------|
E|-333333333333333322222222---------    --3--2-5-7~-|
Comments