Ash - Stay In Love Forever Chords & Tabs

 

Stay In Love Forever Chords & Tabs

Ash Chords & Tabs

Version: 1 Type: Tab 0 ratings
1 star 2 stars 3 stars 4 stars 5 stars
comments

Stay In Love Forever Tab

   
Song:	Stay In Love Forever
Band:	Ash
Tabber:	Ruairi Coleman

Ok i know its not the full song but i had this tab layin on my 
computer for over 6 months so im just gona post it now see if anyone 
can inprove on it. Enjoy and please rate :)

Chords used though out the tab
     G#   F#/Gb   B#   G#/Ab   C#/Db   Dm#/Emb
 E|--3------2-----7------4-------9--------6---------------------|
 B|--3------2-----7------4-------9--------7---------------------|
 G|--4------3-----8------5-------10-------8---------------------|
 D|--5------4-----9------6-------11-------8---------------------|
 A|--5------4-----9------6-------11-------6---------------------|
 E|--3------2-----7------4-------9--------6---------------------|

  Intro
 E|---3--3--3--3-3--3--3--3---2--2--2--2-2--2--2--2-------------|
 B|---3--3--3--3-3--3--3--3---2--2--2--2-2--2--2--2-------------|
 G|---4--4--4--4-4--4--4--4---3--3--3--3-3--3--3--3-------------|
 D|---5--5--5--5-5--5--5--5---4--4--4--4-4--4--4--4-------------|
 A|---5--5--5--5-5--5--5--5---4--4--4--4-4--4--4--4-------------|
 E|-------------------------------------------------------------| Play x2

 E|-------------------------------------------------------------|
 B|-------------------------------------------------------------|
 G|---8--8--8--8--8--8--8--8--8--8--8--8--8--8--8--8------------|
 D|---9--9--9--9--9--9--9--9--9--9--9--9--9--9--9--9------------|
 A|---9--9--9--9--9--9--9--9--9--9--9--9--9--9--9--9------------|
 E|---7--7--7--7--7--7--7--7--7--7--7--7--7--7--7--7------------|
      She is my Christ            She is my redeemer
      The architect of my dreams  She'll stay with me forever

 E|-----------2-2-------2----------2-2--------2-----------------|
 B|-----------2-2-------2----------2-2--------2-----------------|
 G|---3--3--3-3-3-3--3--3--3--3--3-3-3--3--3--3-----------------|
 D|---4--4--4-4-4-4--4--4--4--4--4-4-4--4--4--4-----------------|
 A|---4--4--4-4-4-4--4--4--4--4--4-4-4--4--4--4-----------------|
 E|---2--2--2-2-2-2--2--2--2--2--2-2-2--2--2--2-----------------|

 E|-------------------------------------------------------------|
 B|-------------------------------------------------------------|
 G|---8--8--8--8--8--8--8--8--8--8--8--8--8--8--8--8------------|
 D|---9--9--9--9--9--9--9--9--9--9--9--9--9--9--9--9------------|
 A|---9--9--9--9--9--9--9--9--9--9--9--9--9--9--9--9------------|
 E|---7--7--7--7--7--7--7--7--7--7--7--7--7--7--7--7------------|
      The mention of her name      Goes through me like a spear
      The mention of her name      And I will surrender

 E|-----------2-2-------2----------2-2--------2-----------------|
 B|-----------2-2-------2----------2-2--------2-----------------|
 G|---3--3--3-3-3-3--3--3--3--3--3-3-3--3--3--3-----------------|
 D|---4--4--4-4-4-4--4--4--4--4--4-4-4--4--4--4-----------------|
 A|---4--4--4-4-4-4--4--4--4--4--4-4-4--4--4--4-----------------|
 E|---2--2--2-2-2-2--2--2--2--2--2-2-2--2--2--2-----------------|
  Play x1

 E|-------------------------------------------------------------|
 B|-------------------------------------------------------------|
 G|---5--5--5--5--5--5--5--5--10--10--10--10--10--10--10--10----|
 D|---6--6--6--6--6--6--6--6--11--11--11--11--11--11--11--11----|
 A|---6--6--6--6--6--6--6--6--11--11--11--11--11--11--11--11----|
 E|---4--4--4--4--4--4--4--4--9---9---9---9---9---9---9---9-----|
There's no need to fight it    There's no need to hide it

 E|-------------------------------------------------------------------------|
 B|-------------------------------------------------------------------------|
 G|-5--5--5--5--5--5--5--5--10-10-10-10-10-10-10-10-10-10-10-10-10-10-10-10-|
 D|-6--6--6--6--6--6--6--6--11-11-11-11-11-11-11-11-11-11-11-11-11-11-11-11-|
 A|-6--6--6--6--6--6--6--6--11-11-11-11-11-11-11-11-11-11-11-11-11-11-11-11-|
 E|-4--4--4--4--4--4--4--4--9--9--9--9--9--9--9--9--9--9--9--9--9--9--9--9--|
There's no need to doubt it   Stay___ in love forever______

 E|-------------------------------------------------------------|
 B|----------------------------------------7-7-7-7-7-7-7-7------|
 G|---3-3-3-3-3-3-3-3--8-8-8--10-10-10-10--8-8-8-8-8-8-8-8------|
 D|---4-4-4-4-4-4-4-4--9-9-9--11-11-11-11--8-8-8-8-8-8-8-8------|
 A|---4-4-4-4-4-4-4-4--9-9-9--11-11-11-11--6-6-6-6-6-6-6-6------|
 E|---2-2-2-2-2-2-2-2--7-7-7--9--9--9--9------------------------|
                       Stay in love forever
[ Tab from: http://www.guitartabs.cc/tabs/a/ash/stay_in_love_forever_tab.html ]
 E|-------------------------------------------------------------|
 B|-------------------------------------------------------------|
 G|---8-8-8--10-10-10-10--3-3-3-3-3-3-3-3-----------------------|
 D|---9-9-9--11-11-11-11--4-4-4-4-4-4-4-4-----------------------|
 A|---9-9-9--11-11-11-11--4-4-4-4-4-4-4-4-----------------------|
 E|---7-7-7--9--9--9--9---2-2-2-2-2-2-2-2-----------------------|
      Stay in love forever


 E|-------------------------------------------------------------|
 B|-------------------------------------------------------------|
 G|---8--8--8--8--8--8--8--8--8--8--8--8--8--8--8--8------------|
 D|---9--9--9--9--9--9--9--9--9--9--9--9--9--9--9--9------------|
 A|---9--9--9--9--9--9--9--9--9--9--9--9--9--9--9--9------------|
 E|---7--7--7--7--7--7--7--7--7--7--7--7--7--7--7--7------------|
    Your voice in the morning  Makes everything clearer
    All my doubts are gone     And pain I can't remember

 E|-----------2-2-------2----------2-2--------2-----------------|
 B|-----------2-2-------2----------2-2--------2-----------------|
 G|---3--3--3-3-3-3--3--3--3--3--3-3-3--3--3--3-----------------|
 D|---4--4--4-4-4-4--4--4--4--4--4-4-4--4--4--4-----------------|
 A|---4--4--4-4-4-4--4--4--4--4--4-4-4--4--4--4-----------------|
 E|---2--2--2-2-2-2--2--2--2--2--2-2-2--2--2--2-----------------|

 E|-------------------------------------------------------------|
 B|-------------------------------------------------------------|
 G|---8--8--8--8--8--8--8--8--8--8--8--8--8--8--8--8------------|
 D|---9--9--9--9--9--9--9--9--9--9--9--9--9--9--9--9------------|
 A|---9--9--9--9--9--9--9--9--9--9--9--9--9--9--9--9------------|
 E|---7--7--7--7--7--7--7--7--7--7--7--7--7--7--7--7------------|
          Deity incarnate       Celestial redeemer
To me your name is sacred       To you I will surrender

 E|-----------2-2-------2----------2-2--------2-----------------|
 B|-----------2-2-------2----------2-2--------2-----------------|
 G|---3--3--3-3-3-3--3--3--3--3--3-3-3--3--3--3-----------------|
 D|---4--4--4-4-4-4--4--4--4--4--4-4-4--4--4--4-----------------|
 A|---4--4--4-4-4-4--4--4--4--4--4-4-4--4--4--4-----------------|
 E|---2--2--2-2-2-2--2--2--2--2--2-2-2--2--2--2-----------------|

 E|-------------------------------------------------------------|
 B|-------------------------------------------------------------|
 G|---5--5--5--5--5--5--5--5--10--10--10--10--10--10--10--10----|
 D|---6--6--6--6--6--6--6--6--11--11--11--11--11--11--11--11----|
 A|---6--6--6--6--6--6--6--6--11--11--11--11--11--11--11--11----|
 E|---4--4--4--4--4--4--4--4--9---9---9---9---9---9---9---9-----|
There's no need to fight it    There's no need to hide it

 E|-------------------------------------------------------------------------|
 B|-------------------------------------------------------------------------|
 G|-5--5--5--5--5--5--5--5--10-10-10-10-10-10-10-10-10-10-10-10-10-10-10-10-|
 D|-6--6--6--6--6--6--6--6--11-11-11-11-11-11-11-11-11-11-11-11-11-11-11-11-|
 A|-6--6--6--6--6--6--6--6--11-11-11-11-11-11-11-11-11-11-11-11-11-11-11-11-|
 E|-4--4--4--4--4--4--4--4--9--9--9--9--9--9--9--9--9--9--9--9--9--9--9--9--|
There's no need to doubt it   Stay___ in love forever______

 E|-------------------------------------------------------------|
 B|----------------------------------------7-7-7-7-7-7-7-7------|
 G|---3-3-3-3-3-3-3-3--8-8-8--10-10-10-10--8-8-8-8-8-8-8-8------|
 D|---4-4-4-4-4-4-4-4--9-9-9--11-11-11-11--8-8-8-8-8-8-8-8------|
 A|---4-4-4-4-4-4-4-4--9-9-9--11-11-11-11--6-6-6-6-6-6-6-6------|
 E|---2-2-2-2-2-2-2-2--7-7-7--9--9--9--9------------------------|
                       Stay in love forever

 E|-------------------------------------------------------------|
 B|-------------------------------------------------------------|
 G|---8-8-8--10-10-10-10--3-3-3-3-3-3-3-3-----------------------|
 D|---9-9-9--11-11-11-11--4-4-4-4-4-4-4-4-----------------------|
 A|---9-9-9--11-11-11-11--4-4-4-4-4-4-4-4-----------------------|
 E|---7-7-7--9--9--9--9---2-2-2-2-2-2-2-2-----------------------|
      Stay in love forever

 Solo
 E|-------------------------------------------------------------|
 B|-------------------------------------------------------------|
 G|-------------------------------------------------------------|
 D|---------------------------------------------------------(5)-|
 A|--14~~~-14~~-13~~~--15~~~-16~~~--7h9~~--2~~~-2~~-1~~~/-5~----|
 E|-------------------------------------------------------------|

Thats all I got so far. If anyone know the rest of the solo please
comment on it or e-mail it to me at dudenrock@hotmail.com
Comments