Ash - Starcrossd Chords & Tabs

 

Starcrossd Chords & Tabs

Ash Chords & Tabs

Version: 1 Type: Tab 0 ratings
1 star 2 stars 3 stars 4 stars 5 stars
comments

Starcrossd Tab

   
wesome song. Have fun!

CHORDS USED

 F  C  Dm  Am  G  Em  C5  G5  F5
-1--0---1---0--3---0----------------------------||
-1--1---3---1--3---0----------------------------||
-2--0---2---2--0---0--5-------10----------------||
-3--2---0---2--0---2--5---5---10----------------||
-3--3---x---0--2---2--3---5---8-----------------||
-1--x---x---x--3---0------3---------------------||


INTRO

Guitar 1 w/ distortion
e-------------------------------------||
b-5-6-8---5h6-8---5h6-8--------6--5---||
g-5-5-5---5-5-5---5-5-5--X 10--5--5---||
d-5-5-5---5-5-5---5-5-5--------5--5---||
a-------------------------------------||
e-------------------------------------||


Guitar 2 w/ distortion (I can't figure the strum.Listen to the song)
e-------------------------------------------||
b-------------------------------------------||
g-5-----10-10-------------------------------||
d-5--5--10-10---X-2-------------------------||
a-3--5--8--8--------------------------------||
e----3--------------------------------------||

VERSE 1 CLEAR


F
Behold this night, still and clear

F                             C
You look here just like an angel sleeping
F
I wish I could ease your fears
F                                       C
I would catch the diamond tears youre weeping
Am
In your eyes I would hide
F
By your side I could defy
Em                    Em
The forces tearing us apart
F
But reality, as it seems
C
Looking back, is that our dream
        Dm		G
Was fated from the start


CHORUS w/distortion

           C5             G5       F5
Girl were starcrossed and cant escape
           C5          G5      F5
Were condemned and can only wait
         C5           G5       Dm
At this time now its far too late
 Em         F5        G5
To save us from our fate


VERSE 2 CLEAR

[ Tab from: http://www.guitartabs.cc/tabs/a/ash/starcrossd_tab.html ]
F                        F
Ill remain in your hold, Body, mind, heart and soul
     C5
As long as     I breathe
F                                  F
Though consequence takes its toll, All is out of our control
C
Thats how it will be
Am
So close your eyes my young bride
F
Listen to me one last time
Em                         Em
Theres something I have to say
F
When your faith turns to despair
C
Always will my love be there
      Dm         G
And never fade away

CHORUS  (without the last G5)


BRIDGE w/distortion

Em                F
You cant save us
Em
You cant save us

SOLO

e-----------------------------------------||
b--12b13------------12b13-----------------||
g---------12-10-9----------12-10-9-9h10---||let ring
d-----------------------------------------||
a-----------------------------------------||
e-----------------------------------------||

e---------------------------------------||
b---------------------------------------||
g-10--12b14-14r12-10--------------------||
d---------------------------------------||
a---------------------------------------||
e---------------------------------------||

e-----------------------------------------||
b--12b13------------12b13-----------------||
g---------12-10-9----------12-10-9-9h10---||let ring
d-----------------------------------------||
a-----------------------------------------||
e-----------------------------------------||

e-------------------------------------||
b----------------------13--13---------||
g-10-12b14-14b12-12b14---14--14-14r12-||
d-------------------------------------||
a-------------------------------------||
e-------------------------------------||


CHORUS

           C5           G5     F5
Girl were star-crossed and cant escape
           C5         G5      F5
Were condemned and can only wait
         C5           G5      Dm
At this time now its far too late
Em         F5         G5
The poisons in our veins

(Intro is also repeated at this point.)

       C5     G5      F5    F5
Its true
                          C5     G5      F5     F5
You know that Id die for you
                          C5     G5      F5     F5
You know that Id die for you
               		C5     G5      F5     F5
You know that Id die for you


END

guitar 2 w/distortion

e-------------------------------------||
b-------------------------------------||
g-12b14r12-10-9-let ring--------------||
d-------------------------------------||
a-------------------------------------||
e-------------------------------------||

guitar 1 does another time the intro

That's all.I think is about 90% right.Try it!!!

Ricky
Comments