Ash - Sometimes Chords & Tabs

 

Sometimes Chords & Tabs

Ash Chords & Tabs

Version: 3 Type: Tab 0 ratings
1 star 2 stars 3 stars 4 stars 5 stars
comments

Sometimes Tab

   
ash,sometimes.
 Tabbed by duffy,celticdahoopz@aol.com.
  
this is the riff at the intro and i think you'll find it is similar to 'burn baby burn'

e\\9----9-----9-----9----9h10--9----9----9----9----9h10
b\\--10---10----10----10---------10---10---10---10-----
g\\----------------------------------------------------
d\\----------------------------------------------------
a\\----------------------------------------------------
e\\----------------------------------------------------

now the solo comes in
[ Tab from: http://www.guitartabs.cc/tabs/a/ash/sometimes_tab_ver_3.html ]
e/----------------------------------------------------
b/---9-7-6-6-6-6-6------9-7-6-6-6-6b---9-7-6-6-6-6-6--
g/-9---------------6--9--------------9---------------6
d/----------------------------------------------------
a/----------------------------------------------------
e/----------------------------------------------------

g/-6b
d/----7

a                f#m    c#m7    a
cant sleep in the city,you're far away
a                    f#m       c#m7         a    
cigarettes keep you skinny,and youre mind off the rain
   f#m    c#m7  a
sometimes,sometimes
   f#m       c#m7    a
oh sometimes,sometimes

keep repeating this for every verse in the song 

and the chorus chords are like this 

e........dmaj7....e..........a
e........dmaj7....e..........a

listen 2 the song and you'll get the hang of it 
:: Ultimate Guitar Archive :: 
http://www.ultimate-guitar.com 



Comments