Ash - Sometimes Chords & Tabs

 

Sometimes Chords & Tabs

Ash Chords & Tabs

Version: 2 Type: Tab 0 ratings
1 star 2 stars 3 stars 4 stars 5 stars
comments

Sometimes Tab

   
Song: Sometimes
Band: Ash
By : Dan

This has a lot in it as most ash stuff does. 

|  |= 1 bar

Chords used:
             E  a  d  g  b  E
E            0  2  2  1  0  0
Dmaj7        x  5  7  6  7  5
Dmaj7*      10  x 11  11 10 9  
A            5  7  7  6  5  5
A*           x 12 11  9 10  9
E6           x  7  9  9  9  9 
C#m          x  4  6  6  5  4
F#m          2  4  4  2  2  2

Intro:

e----9----9----9----9-9h10-9----9----9----9------|
b-10---10---10---10----------10---10---10---10---|
g------------------------------------------------|
d------------------------------------------------|
a------------------------------------------------|
E------------------------------------------------|

  E        Dmaj7     E         Dmaj7      a   E        Dmaj7   E  
[ Tab from: http://www.guitartabs.cc/tabs/a/ash/sometimes_tab_ver_2.html ]
e---0-------------------0-----------------------0-------------------|
b-----3-2--2-2-2-2--------3-2--2-2-2-2b3r2-2--0---3-2--2-2-2-2------|
g-2----------------1--1----------------------------------------1----|
d-------------------------------------------------------------------|
a-------------------------------------------------------------------|
E-------------------------------------------------------------------|
 
  (E)  Dmaj7   a

e------------------|
b-2b3r2------------|
g-------2--2/4-2---|
d------------------|
a------------------|
E------------------|

Verse:

| a*  Dmaj7* | E6  a | etc

Chorus:

| (a)  E | Dmaj7 | E | Dmaj7 | a |  sometimes x2 and x4 later

Bridge:

| (a)  E | Dmaj7 | E | C#m | F#m | Dmaj7 | E | Dmaj7 |

Repeat the last two lines of the intro for the solo and thats it enjoy!
Comments