Ash - Shining Light Chords & Tabs

 

Shining Light Chords & Tabs

Ash Chords & Tabs

Version: 9 Type: Tab 0 ratings
1 star 2 stars 3 stars 4 stars 5 stars
comments

Shining Light Tab

   
Song: Shining Light
Band: Ash
Album: Free all angels
By: Dan

Tab:

|  | = 1 bar
h= hammer
b= bend
/= slide
Chords:
             E  a  d  g  b  E
D           10 12 12 11 10 10
G            x 10 12 12 12 10
Bm           7  9  9  7  7  7
D*           x  5  7  7  7  5
Bm*          x  2  4  4  3  2
G*           3  5  5  4  3  3
F#m          2  4  4  2  2  2
A            5  7  7  6  5  5
Bmaj/min     x  2  4  3  3  2
Bm7          x  2  4  2  3  2
Bm7/6        x  2  4  2  3  4
Em           0  2  2  0  0  0
A*           x  0  2  2  2  0


Intro and Verses 1 and 2:

| d | g d g d | Bm g | d |

Fill: ( play after 2 lines of the intro in the first verse, but not
in the second verse. Also play it before the chorus in both verses)

| Bm g | d |

Chorus:

| d* | Bm* | F#m | g* | F#m | g | a |


Verse 3:

| Bm* | Bmaj/min | Bm7 | Bm7/6 | Em | a | Em | a |

| Bm* | Bmaj/min | Bm7 | Bm7/6 | Em | a | g* | a |
[ Tab from: http://www.guitartabs.cc/tabs/a/ash/shining_light_tab_ver_9.html ]
Solo: (played over chorus chords)

e------------------------------------------------------------------|
b------------------------------------------------------------------|
g-11/2-----------------------------------2---2-------------2-----2-|
d------/12/2/4-4/2-2/4-9-9-7---------2/4---4---4-2/4---4-2-2-4-2---|
a----------------------------2-2-2-0-----------------0-----0-------|
E------------------------------------------------------------------|

e------------------------------------------------------------|
b------------------------------------------------------------|
g------------------------------2---2-4-4b5-4b5-4b5-4-2-------|
d-14/16-16/14-14/16-16-16/-2-4---4---------------------4-2-2-|
a------------------------------------------------------------|
E------------------------------------------------------------|
--
e---------------------------------------------------------------|
b-/7-7-7-7p5----------------------------------------------------|
g------------6-6p4-4b5-4-4-2-2-2-2/4-4/2-2/17-------------------|
d----------------------------2-2--------------------------------|
a----------------------------0-0--------------------------------|
E---------------------------------------------------------------|

The last chorus is the same as the others but the the chords are
played 1 semi-tone higher ( 1 fret) so D becomes D# etc.

Enjoy Dan
Comments